  0
SECTION
  2
HEADER
  9
$ACADVER
  1
AC1015
  9
$ACADMAINTVER
 70
     6
  9
$DWGCODEPAGE
  3
ANSI_1254
  9
$INSBASE
 10
0.0
 20
0.0
 30
0.0
  9
$EXTMIN
 10
0.0
 20
0.0
 30
0.0
  9
$EXTMAX
 10
279.4
 20
215.9
 30
0.0
  9
$LIMMIN
 10
0.0
 20
0.0
  9
$LIMMAX
 10
279.4
 20
215.9
  9
$ORTHOMODE
 70
     0
  9
$REGENMODE
 70
     1
  9
$FILLMODE
 70
     1
  9
$QTEXTMODE
 70
     0
  9
$MIRRTEXT
 70
     1
  9
$LTSCALE
 40
1.0
  9
$ATTMODE
 70
     1
  9
$TEXTSIZE
 40
3.5
  9
$TRACEWID
 40
1.0
  9
$TEXTSTYLE
  7
Standard
  9
$CLAYER
  8
0
  9
$CELTYPE
  6
ByLayer
  9
$CECOLOR
 62
   256
  9
$CELTSCALE
 40
1.0
  9
$DISPSILH
 70
     0
  9
$DIMSCALE
 40
1.0
  9
$DIMASZ
 40
3.5
  9
$DIMEXO
 40
1.0
  9
$DIMDLI
 40
3.75
  9
$DIMRND
 40
0.0
  9
$DIMDLE
 40
0.0
  9
$DIMEXE
 40
1.0
  9
$DIMTP
 40
0.0
  9
$DIMTM
 40
0.0
  9
$DIMTXT
 40
3.5
  9
$DIMCEN
 40
2.5
  9
$DIMTSZ
 40
0.0
  9
$DIMTOL
 70
     0
  9
$DIMLIM
 70
     0
  9
$DIMTIH
 70
     1
  9
$DIMTOH
 70
     1
  9
$DIMSE1
 70
     0
  9
$DIMSE2
 70
     0
  9
$DIMTAD
 70
     1
  9
$DIMZIN
 70
     0
  9
$DIMBLK
  1

  9
$DIMASO
 70
     1
  9
$DIMSHO
 70
     1
  9
$DIMPOST
  1

  9
$DIMAPOST
  1

  9
$DIMALT
 70
     0
  9
$DIMALTD
 70
     3
  9
$DIMALTF
 40
0.0393700787
  9
$DIMLFAC
 40
1.0
  9
$DIMTOFL
 70
     1
  9
$DIMTVP
 40
0.0
  9
$DIMTIX
 70
     0
  9
$DIMSOXD
 70
     0
  9
$DIMSAH
 70
     0
  9
$DIMBLK1
  1

  9
$DIMBLK2
  1

  9
$DIMSTYLE
  2
ISO-25
  9
$DIMCLRD
 70
     0
  9
$DIMCLRE
 70
     0
  9
$DIMCLRT
 70
     0
  9
$DIMTFAC
 40
1.0
  9
$DIMGAP
 40
1.524
  9
$DIMJUST
 70
     0
  9
$DIMSD1
 70
     0
  9
$DIMSD2
 70
     0
  9
$DIMTOLJ
 70
     0
  9
$DIMTZIN
 70
     0
  9
$DIMALTZ
 70
     0
  9
$DIMALTTZ
 70
     0
  9
$DIMUPT
 70
     0
  9
$DIMDEC
 70
     2
  9
$DIMTDEC
 70
     2
  9
$DIMALTU
 70
     2
  9
$DIMALTTD
 70
     3
  9
$DIMTXSTY
  7
Standard
  9
$DIMAUNIT
 70
     0
  9
$DIMADEC
 70
     2
  9
$DIMALTRND
 40
0.0
  9
$DIMAZIN
 70
     0
  9
$DIMDSEP
 70
    44
  9
$DIMATFIT
 70
     3
  9
$DIMFRAC
 70
     0
  9
$DIMLDRBLK
  1

  9
$DIMLUNIT
 70
     2
  9
$DIMLWD
 70
    -2
  9
$DIMLWE
 70
    -2
  9
$DIMTMOVE
 70
     0
  9
$LUNITS
 70
     2
  9
$LUPREC
 70
     2
  9
$SKETCHINC
 40
1.0
  9
$FILLETRAD
 40
10.0
  9
$AUNITS
 70
     0
  9
$AUPREC
 70
     2
  9
$MENU
  1
.
  9
$ELEVATION
 40
0.0
  9
$PELEVATION
 40
0.0
  9
$THICKNESS
 40
0.0
  9
$LIMCHECK
 70
     0
  9
$CHAMFERA
 40
0.0
  9
$CHAMFERB
 40
0.0
  9
$CHAMFERC
 40
0.0
  9
$CHAMFERD
 40
0.0
  9
$SKPOLY
 70
     0
  9
$TDCREATE
 40
2459935.709210845
  9
$TDUCREATE
 40
2459935.584210845
  9
$TDUPDATE
 40
2459935.709211053
  9
$TDUUPDATE
 40
2459935.584211053
  9
$TDINDWG
 40
0.0000000116
  9
$TDUSRTIMER
 40
0.0000000116
  9
$USRTIMER
 70
     1
  9
$ANGBASE
 50
0.0
  9
$ANGDIR
 70
     0
  9
$PDMODE
 70
     0
  9
$PDSIZE
 40
-1.0
  9
$PLINEWID
 40
0.0
  9
$SPLFRAME
 70
     0
  9
$SPLINETYPE
 70
     6
  9
$SPLINESEGS
 70
     8
  9
$HANDSEED
  5
185
  9
$SURFTAB1
 70
     6
  9
$SURFTAB2
 70
     6
  9
$SURFTYPE
 70
     6
  9
$SURFU
 70
     6
  9
$SURFV
 70
     6
  9
$UCSBASE
  2

  9
$UCSNAME
  2

  9
$UCSORG
 10
0.0
 20
0.0
 30
0.0
  9
$UCSXDIR
 10
1.0
 20
0.0
 30
0.0
  9
$UCSYDIR
 10
0.0
 20
1.0
 30
0.0
  9
$UCSORTHOREF
  2

  9
$UCSORTHOVIEW
 70
     0
  9
$UCSORGTOP
 10
0.0
 20
0.0
 30
0.0
  9
$UCSORGBOTTOM
 10
0.0
 20
0.0
 30
0.0
  9
$UCSORGLEFT
 10
0.0
 20
0.0
 30
0.0
  9
$UCSORGRIGHT
 10
0.0
 20
0.0
 30
0.0
  9
$UCSORGFRONT
 10
0.0
 20
0.0
 30
0.0
  9
$UCSORGBACK
 10
0.0
 20
0.0
 30
0.0
  9
$PUCSBASE
  2

  9
$PUCSNAME
  2

  9
$PUCSORG
 10
0.0
 20
0.0
 30
0.0
  9
$PUCSXDIR
 10
1.0
 20
0.0
 30
0.0
  9
$PUCSYDIR
 10
0.0
 20
1.0
 30
0.0
  9
$PUCSORTHOREF
  2

  9
$PUCSORTHOVIEW
 70
     0
  9
$PUCSORGTOP
 10
0.0
 20
0.0
 30
0.0
  9
$PUCSORGBOTTOM
 10
0.0
 20
0.0
 30
0.0
  9
$PUCSORGLEFT
 10
0.0
 20
0.0
 30
0.0
  9
$PUCSORGRIGHT
 10
0.0
 20
0.0
 30
0.0
  9
$PUCSORGFRONT
 10
0.0
 20
0.0
 30
0.0
  9
$PUCSORGBACK
 10
0.0
 20
0.0
 30
0.0
  9
$USERI1
 70
     0
  9
$USERI2
 70
     0
  9
$USERI3
 70
     0
  9
$USERI4
 70
     0
  9
$USERI5
 70
     0
  9
$USERR1
 40
0.0
  9
$USERR2
 40
0.0
  9
$USERR3
 40
0.0
  9
$USERR4
 40
0.0
  9
$USERR5
 40
0.0
  9
$WORLDVIEW
 70
     1
  9
$SHADEDGE
 70
     3
  9
$SHADEDIF
 70
    70
  9
$TILEMODE
 70
     1
  9
$MAXACTVP
 70
    64
  9
$PINSBASE
 10
0.0
 20
0.0
 30
0.0
  9
$PLIMCHECK
 70
     0
  9
$PEXTMIN
 10
1.0000000000E+20
 20
1.0000000000E+20
 30
1.0000000000E+20
  9
$PEXTMAX
 10
-1.0000000000E+20
 20
-1.0000000000E+20
 30
-1.0000000000E+20
  9
$PLIMMIN
 10
0.0
 20
0.0
  9
$PLIMMAX
 10
420.0
 20
297.0
  9
$UNITMODE
 70
     0
  9
$VISRETAIN
 70
     1
  9
$PLINEGEN
 70
     0
  9
$PSLTSCALE
 70
     1
  9
$TREEDEPTH
 70
  3020
  9
$CMLSTYLE
  2
Standard
  9
$CMLJUST
 70
     0
  9
$CMLSCALE
 40
20.0
  9
$PROXYGRAPHICS
 70
     1
  9
$MEASUREMENT
 70
     1
  9
$CELWEIGHT
370
    -1
  9
$ENDCAPS
280
     0
  9
$JOINSTYLE
280
     0
  9
$LWDISPLAY
290
     1
  9
$INSUNITS
 70
     4
  9
$HYPERLINKBASE
  1

  9
$STYLESHEET
  1

  9
$XEDIT
290
     1
  9
$CEPSNTYPE
380
     0
  9
$PSTYLEMODE
290
     1
  9
$FINGERPRINTGUID
  2
{8a0ea6ef-6c56-43f6-a9c3-3707551feb34}
  9
$VERSIONGUID
  2
{FAEB1C32-E019-11D5-929B-00C0DF256EC4}
  9
$EXTNAMES
290
     1
  9
$PSVPSCALE
 40
0.0
  9
$OLESTARTUP
290
     0
  0
ENDSEC
  0
SECTION
  2
CLASSES
  0
CLASS
  1
ACDBDICTIONARYWDFLT
  2
AcDbDictionaryWithDefault
  3
ObjectDBX Classes
 90
        0
280
     0
281
     0
  0
CLASS
  1
VISUALSTYLE
  2
AcDbVisualStyle
  3
ObjectDBX Classes
 90
     4095
280
     0
281
     0
  0
CLASS
  1
MATERIAL
  2
AcDbMaterial
  3
ObjectDBX Classes
 90
     1153
280
     0
281
     0
  0
CLASS
  1
SCALE
  2
AcDbScale
  3
ObjectDBX Classes
 90
     1153
280
     0
281
     0
  0
CLASS
  1
TABLESTYLE
  2
AcDbTableStyle
  3
ObjectDBX Classes
 90
     4095
280
     0
281
     0
  0
CLASS
  1
MLEADERSTYLE
  2
AcDbMLeaderStyle
  3
ACDB_MLEADERSTYLE_CLASS
 90
     4095
280
     0
281
     0
  0
CLASS
  1
SUN
  2
AcDbSun
  3
SCENEOE
 90
     1153
280
     0
281
     0
  0
CLASS
  1
ACDBPLACEHOLDER
  2
AcDbPlaceHolder
  3
ObjectDBX Classes
 90
        0
280
     0
281
     0
  0
CLASS
  1
LAYOUT
  2
AcDbLayout
  3
ObjectDBX Classes
 90
        0
280
     0
281
     0
  0
ENDSEC
  0
SECTION
  2
TABLES
  0
TABLE
  2
VPORT
  5
8
330
0
100
AcDbSymbolTable
 70
     1
  0
VPORT
  5
29
330
8
100
AcDbSymbolTableRecord
100
AcDbViewportTableRecord
  2
*Active
 70
     0
 10
0.0
 20
0.0
 11
1.0
 21
1.0
 12
139.7
 22
107.95
 13
0.0
 23
0.0
 14
10.0
 24
10.0
 15
10.0
 25
10.0
 16
0.0
 26
0.0
 36
1.0
 17
0.0
 27
0.0
 37
0.0
 40
215.9
 41
1.2941176471
 42
50.0
 43
0.0
 44
0.0
 50
0.0
 51
0.0
 71
     0
 72
  2000
 73
     1
 74
     3
 75
     0
 76
     0
 77
     0
 78
     0
281
     0
 65
     1
110
0.0
120
0.0
130
0.0
111
1.0
121
0.0
131
0.0
112
0.0
122
1.0
132
0.0
 79
     0
146
0.0
  0
ENDTAB
  0
TABLE
  2
LTYPE
  5
5
330
0
100
AcDbSymbolTable
 70
     6
  0
LTYPE
  5
14
330
5
100
AcDbSymbolTableRecord
100
AcDbLinetypeTableRecord
  2
ByBlock
 70
     0
  3

 72
    65
 73
     0
 40
0.0
  0
LTYPE
  5
15
330
5
100
AcDbSymbolTableRecord
100
AcDbLinetypeTableRecord
  2
ByLayer
 70
     0
  3

 72
    65
 73
     0
 40
0.0
  0
LTYPE
  5
16
330
5
100
AcDbSymbolTableRecord
100
AcDbLinetypeTableRecord
  2
Continuous
 70
     0
  3
Solid line
 72
    65
 73
     0
 40
0.0
  0
LTYPE
  5
6E
330
5
100
AcDbSymbolTableRecord
100
AcDbLinetypeTableRecord
  2
HIDDEN
 70
     0
  3
Hidden __ __ __ __ __ __ __ __ __ __ __ __ __ __
 72
    65
 73
     2
 40
1.905
 49
1.27
 74
     0
 49
-0.635
 74
     0
  0
LTYPE
  5
6F
330
5
100
AcDbSymbolTableRecord
100
AcDbLinetypeTableRecord
  2
PHANTOM
 70
     0
  3
Phantom ______  __  __  ______  __  __  ______
 72
    65
 73
     6
 40
12.7
 49
6.35
 74
     0
 49
-1.27
 74
     0
 49
1.27
 74
     0
 49
-1.27
 74
     0
 49
1.27
 74
     0
 49
-1.27
 74
     0
  0
LTYPE
  5
70
330
5
100
AcDbSymbolTableRecord
100
AcDbLinetypeTableRecord
  2
CENTER
 70
     0
  3
Center ____ _ ____ _ ____ _ ____ _ ____ _ ____
 72
    65
 73
     4
 40
10.16
 49
6.35
 74
     0
 49
-1.27
 74
     0
 49
1.27
 74
     0
 49
-1.27
 74
     0
  0
LTYPE
  5
71
330
5
100
AcDbSymbolTableRecord
100
AcDbLinetypeTableRecord
  2
CENTERX2
 70
     0
  3
Center (2x) ________  __  ________  __  _____
 72
    65
 73
     4
 40
20.32
 49
12.7
 74
     0
 49
-2.54
 74
     0
 49
2.54
 74
     0
 49
-2.54
 74
     0
  0
LTYPE
  5
72
330
5
100
AcDbSymbolTableRecord
100
AcDbLinetypeTableRecord
  2
DOT2
 70
     0
  3
Dot (.5x) ........................................
 72
    65
 73
     2
 40
0.635
 49
0.0
 74
     0
 49
-0.635
 74
     0
  0
ENDTAB
  0
TABLE
  2
LAYER
  5
2
330
0
100
AcDbSymbolTable
 70
    17
  0
LAYER
  5
10
330
2
100
AcDbSymbolTableRecord
100
AcDbLayerTableRecord
  2
0
 70
     0
 62
     7
  6
Continuous
370
    -3
390
F
  0
LAYER
  5
73
330
2
100
AcDbSymbolTableRecord
100
AcDbLayerTableRecord
  2
FORMAT
 70
     0
 62
     7
  6
Continuous
370
    -3
390
F
  0
LAYER
  5
74
330
2
100
AcDbSymbolTableRecord
100
AcDbLayerTableRecord
  2
YARDIMCI_GEOMETRI
 70
     0
 62
    -6
  6
Continuous
290
     0
370
    -3
390
F
  0
LAYER
  5
75
330
2
100
AcDbSymbolTableRecord
100
AcDbLayerTableRecord
  2
SAYFA_CERCEVESI
 70
     0
 62
     7
  6
Continuous
370
    25
390
F
  0
LAYER
  5
76
330
2
100
AcDbSymbolTableRecord
100
AcDbLayerTableRecord
  2
ANTET
 70
     0
 62
     7
  6
Continuous
370
    -3
390
F
  0
LAYER
  5
77
330
2
100
AcDbSymbolTableRecord
100
AcDbLayerTableRecord
  2
OLCU
 70
     0
 62
   150
  6
Continuous
370
    -3
390
F
  0
LAYER
  5
78
330
2
100
AcDbSymbolTableRecord
100
AcDbLayerTableRecord
  2
METIN
 70
     0
 62
    96
  6
Continuous
370
    -3
390
F
  0
LAYER
  5
79
330
2
100
AcDbSymbolTableRecord
100
AcDbLayerTableRecord
  2
BALON
 70
     0
 62
     5
  6
Continuous
370
    -3
390
F
  0
LAYER
  5
7A
330
2
100
AcDbSymbolTableRecord
100
AcDbLayerTableRecord
  2
VURGU
 70
     0
 62
     7
  6
Continuous
370
    -3
390
F
  0
LAYER
  5
7B
330
2
100
AcDbSymbolTableRecord
100
AcDbLayerTableRecord
  2
SILIK
 70
     0
 62
     7
  6
Continuous
370
    -3
390
F
  0
LAYER
  5
7C
330
2
100
AcDbSymbolTableRecord
100
AcDbLayerTableRecord
  2
MODEL
 70
     0
 62
     7
  6
Continuous
370
    -3
390
F
  0
LAYER
  5
7D
330
2
100
AcDbSymbolTableRecord
100
AcDbLayerTableRecord
  2
DETAYLANDıRMA
 70
     0
 62
   190
  6
Continuous
370
    -3
390
F
  0
LAYER
  5
7E
330
2
100
AcDbSymbolTableRecord
100
AcDbLayerTableRecord
  2
TOLERANS
 70
     0
 62
   230
  6
Continuous
370
    -3
390
F
  0
LAYER
  5
7F
330
2
100
AcDbSymbolTableRecord
100
AcDbLayerTableRecord
  2
MERKEZ_CIZGILERI
 70
     0
 62
    30
  6
Continuous
370
    -3
390
F
  0
LAYER
  5
80
330
2
100
AcDbSymbolTableRecord
100
AcDbLayerTableRecord
  2
KESIT-DETAY_CIZGILERI
 70
     0
 62
     7
  6
Continuous
370
    -3
390
F
  0
LAYER
  5
81
330
2
100
AcDbSymbolTableRecord
100
AcDbLayerTableRecord
  2
\U+041E\U+0421\U+0415\U+0412\U+042B\U+0415
 70
     0
 62
     7
  6
Continuous
370
    -3
390
F
  0
LAYER
  5
82
330
2
100
AcDbSymbolTableRecord
100
AcDbLayerTableRecord
  2
\U+0412\U+041E\U+0414\U+042F\U+041D\U+042B\U+0415_\U+0417\U+041D\U+0410\U+041A\U+0418
 70
     0
 62
    11
  6
Continuous
370
    -3
390
F
  0
ENDTAB
  0
TABLE
  2
STYLE
  5
3
330
0
100
AcDbSymbolTable
 70
     1
  0
STYLE
  5
11
330
3
100
AcDbSymbolTableRecord
100
AcDbTextStyleTableRecord
  2
Standard
 70
     0
 40
0.0
 41
1.0
 50
0.0
 71
     0
 42
3.5
  3
txt
  4

  0
ENDTAB
  0
TABLE
  2
VIEW
  5
6
330
0
100
AcDbSymbolTable
 70
     0
  0
ENDTAB
  0
TABLE
  2
UCS
  5
7
330
0
100
AcDbSymbolTable
 70
     0
  0
ENDTAB
  0
TABLE
  2
APPID
  5
9
330
0
100
AcDbSymbolTable
 70
     1
  0
APPID
  5
12
330
9
100
AcDbSymbolTableRecord
100
AcDbRegAppTableRecord
  2
ACAD
 70
     0
  0
ENDTAB
  0
TABLE
  2
DIMSTYLE
  5
A
330
0
100
AcDbSymbolTable
 70
     1
100
AcDbDimStyleTable
  0
DIMSTYLE
105
27
330
A
100
AcDbSymbolTableRecord
100
AcDbDimStyleTableRecord
  2
ISO-25
 70
     0
 41
2.5
 42
0.625
 43
3.75
 44
1.25
 73
     0
 74
     0
 77
     1
 78
     8
140
2.5
141
2.5
143
0.0393700787
147
0.625
171
     3
172
     1
178
     0
271
     2
272
     2
274
     3
278
    44
283
     0
284
     8
340
11
  0
ENDTAB
  0
TABLE
  2
BLOCK_RECORD
  5
1
330
0
100
AcDbSymbolTable
 70
     2
  0
BLOCK_RECORD
  5
1F
330
1
100
AcDbSymbolTableRecord
100
AcDbBlockTableRecord
  2
*Model_Space
340
22
  0
BLOCK_RECORD
  5
1B
330
1
100
AcDbSymbolTableRecord
100
AcDbBlockTableRecord
  2
*Paper_Space
340
1E
  0
BLOCK_RECORD
  5
23
330
1
100
AcDbSymbolTableRecord
100
AcDbBlockTableRecord
  2
*Paper_Space0
340
26
  0
BLOCK_RECORD
  5
92
330
1
100
AcDbSymbolTableRecord
100
AcDbBlockTableRecord
  2
SW_CENTERMARKSYMBOL_0
340
0
102
{BLKREFS
331
9D
102
}
  0
ENDTAB
  0
ENDSEC
  0
SECTION
  2
BLOCKS
  0
BLOCK
  5
20
330
1F
100
AcDbEntity
  8
0
100
AcDbBlockBegin
  2
*Model_Space
 70
     0
 10
0.0
 20
0.0
 30
0.0
  3
*Model_Space
  1

  0
ENDBLK
  5
21
330
1F
100
AcDbEntity
  8
0
100
AcDbBlockEnd
  0
BLOCK
  5
1C
330
1B
100
AcDbEntity
 67
     1
  8
0
100
AcDbBlockBegin
  2
*Paper_Space
 70
     0
 10
0.0
 20
0.0
 30
0.0
  3
*Paper_Space
  1

  0
ENDBLK
  5
1D
330
1B
100
AcDbEntity
 67
     1
  8
0
100
AcDbBlockEnd
  0
BLOCK
  5
24
330
23
100
AcDbEntity
  8
0
100
AcDbBlockBegin
  2
*Paper_Space0
 70
     0
 10
0.0
 20
0.0
 30
0.0
  3
*Paper_Space0
  1

  0
ENDBLK
  5
25
330
23
100
AcDbEntity
  8
0
100
AcDbBlockEnd
  0
BLOCK
  5
93
330
92
100
AcDbEntity
  8
0
100
AcDbBlockBegin
  2
SW_CENTERMARKSYMBOL_0
 70
     0
 10
0.0
 20
0.0
 30
0.0
  3
SW_CENTERMARKSYMBOL_0
  1

  0
LINE
  5
95
330
92
100
AcDbEntity
  8
FORMAT
 62
     0
100
AcDbLine
 10
0.0
 20
0.0
 30
0.0
 11
0.0
 21
2.5
 31
0.0
  0
LINE
  5
96
330
92
100
AcDbEntity
  8
FORMAT
 62
     0
100
AcDbLine
 10
0.0
 20
0.0
 30
0.0
 11
-2.5
 21
0.0
 31
0.0
  0
LINE
  5
97
330
92
100
AcDbEntity
  8
FORMAT
 62
     0
100
AcDbLine
 10
0.0
 20
0.0
 30
0.0
 11
0.0
 21
-2.5
 31
0.0
  0
LINE
  5
98
330
92
100
AcDbEntity
  8
FORMAT
 62
     0
100
AcDbLine
 10
0.0
 20
0.0
 30
0.0
 11
2.5
 21
0.0
 31
0.0
  0
LINE
  5
99
330
92
100
AcDbEntity
  8
FORMAT
 62
     0
100
AcDbLine
 10
0.0
 20
5.0
 30
0.0
 11
0.0
 21
34.0
 31
0.0
  0
LINE
  5
9A
330
92
100
AcDbEntity
  8
FORMAT
 62
     0
100
AcDbLine
 10
-5.0
 20
0.0
 30
0.0
 11
-34.0
 21
0.0
 31
0.0
  0
LINE
  5
9B
330
92
100
AcDbEntity
  8
FORMAT
 62
     0
100
AcDbLine
 10
0.0
 20
-5.0
 30
0.0
 11
0.0
 21
-34.0
 31
0.0
  0
LINE
  5
9C
330
92
100
AcDbEntity
  8
FORMAT
 62
     0
100
AcDbLine
 10
5.0
 20
0.0
 30
0.0
 11
34.0
 21
0.0
 31
0.0
  0
ENDBLK
  5
94
330
92
100
AcDbEntity
  8
0
100
AcDbBlockEnd
  0
ENDSEC
  0
SECTION
  2
ENTITIES
  0
CIRCLE
  5
83
330
1F
100
AcDbEntity
  8
0
  6
Continuous
 62
     7
370
    25
100
AcDbCircle
 10
139.8323425481
 20
108.7440552885
 30
0.0
 40
31.50000000000001
  0
CIRCLE
  5
84
330
1F
100
AcDbEntity
  8
0
  6
Continuous
 62
     7
370
    25
100
AcDbCircle
 10
139.8323425481
 20
108.7440552885
 30
0.0
 40
25.7
  0
CIRCLE
  5
85
330
1F
100
AcDbEntity
  8
0
  6
Continuous
 62
     7
370
    25
100
AcDbCircle
 10
139.8323425481
 20
108.7440552885
 30
0.0
 40
16.00000000000003
  0
ARC
  5
86
330
1F
100
AcDbEntity
  8
0
  6
Continuous
 62
     7
370
    25
100
AcDbCircle
 10
139.8323425481
 20
108.7440552885
 30
0.0
 40
45.0
100
AcDbArc
 50
267.2660444507
 51
272.7339555493
  0
LINE
  5
87
330
1F
100
AcDbEntity
  8
0
  6
Continuous
 62
     7
370
    25
100
AcDbLine
 10
137.6859136194
 20
63.795275073
 30
0.0
 11
101.9787714767
 21
84.4108032011
 31
0.0
  0
ARC
  5
88
330
1F
100
AcDbEntity
  8
0
  6
Continuous
 62
     7
370
    25
100
AcDbCircle
 10
139.8323425481
 20
108.7440552885
 30
0.0
 40
45.00000000000002
100
AcDbArc
 50
207.2660444507
 51
212.7339555493
  0
LINE
  5
89
330
1F
100
AcDbEntity
  8
0
  6
Continuous
 62
     7
370
    25
100
AcDbLine
 10
99.8323425481
 20
88.1285271604
 30
0.0
 11
99.8323425481
 21
129.3595834165
 31
0.0
  0
ARC
  5
8A
330
1F
100
AcDbEntity
  8
0
  6
Continuous
 62
     7
370
    25
100
AcDbCircle
 10
139.8323425481
 20
108.7440552885
 30
0.0
 40
45.00000000000001
100
AcDbArc
 50
147.2660444507
 51
152.7339555493
  0
LINE
  5
8B
330
1F
100
AcDbEntity
  8
0
  6
Continuous
 62
     7
370
    25
100
AcDbLine
 10
101.9787714767
 20
133.0773073758
 30
0.0
 11
137.6859136194
 21
153.6928355039
 31
0.0
  0
ARC
  5
8C
330
1F
100
AcDbEntity
  8
0
  6
Continuous
 62
     7
370
    25
100
AcDbCircle
 10
139.8323425481
 20
108.7440552885
 30
0.0
 40
44.99999999999999
100
AcDbArc
 50
87.2660444507
 51
92.7339555493
  0
LINE
  5
8D
330
1F
100
AcDbEntity
  8
0
  6
Continuous
 62
     7
370
    25
100
AcDbLine
 10
141.9787714767
 20
153.6928355039
 30
0.0
 11
177.6859136194
 21
133.0773073758
 31
0.0
  0
LINE
  5
8E
330
1F
100
AcDbEntity
  8
0
  6
Continuous
 62
     7
370
    25
100
AcDbLine
 10
179.8323425481
 20
129.3595834165
 30
0.0
 11
179.8323425481
 21
88.1285271604
 31
0.0
  0
LINE
  5
8F
330
1F
100
AcDbEntity
  8
0
  6
Continuous
 62
     7
370
    25
100
AcDbLine
 10
177.6859136194
 20
84.4108032011
 30
0.0
 11
141.9787714767
 21
63.795275073
 31
0.0
  0
ARC
  5
90
330
1F
100
AcDbEntity
  8
0
  6
Continuous
 62
     7
370
    25
100
AcDbCircle
 10
139.8323425481
 20
108.7440552885
 30
0.0
 40
45.00000000000001
100
AcDbArc
 50
27.2660444507
 51
32.7339555493
  0
ARC
  5
91
330
1F
100
AcDbEntity
  8
0
  6
Continuous
 62
     7
370
    25
100
AcDbCircle
 10
139.8323425481
 20
108.7440552885
 30
0.0
 40
45.00000000000001
100
AcDbArc
 50
327.2660444507
 51
332.7339555493
  0
INSERT
  5
9D
330
1F
100
AcDbEntity
  8
FORMAT
 62
     7
100
AcDbBlockReference
  2
SW_CENTERMARKSYMBOL_0
 10
139.8323425481
 20
108.7440552885
 30
0.0
  0
LINE
  5
9E
330
1F
100
AcDbEntity
  8
0
  6
Continuous
 62
     7
370
    25
100
AcDbLine
 10
171.3323425481
 20
208.1360322864
 30
0.0
 11
171.3323425481
 21
271.1360322864
 31
0.0
  0
LINE
  5
9F
330
1F
100
AcDbEntity
  8
0
  6
Continuous
 62
     7
370
    25
100
AcDbLine
 10
108.3323425481
 20
271.1360322864
 30
0.0
 11
108.3323425481
 21
208.1360322864
 31
0.0
  0
LINE
  5
A0
330
1F
100
AcDbEntity
  8
0
  6
Continuous
 62
     7
370
    25
100
AcDbLine
 10
163.7323425481
 20
169.1360322864
 30
0.0
 11
163.7323425481
 21
169.3360322864
 31
0.0
  0
LINE
  5
A1
330
1F
100
AcDbEntity
  8
0
  6
Continuous
 62
     7
370
    25
100
AcDbLine
 10
115.9323425481
 20
169.3360322864
 30
0.0
 11
115.9323425481
 21
169.1360322864
 31
0.0
  0
LINE
  5
A2
330
1F
100
AcDbEntity
  8
0
  6
Continuous
 62
     7
370
    25
100
AcDbLine
 10
163.7323425481
 20
169.3360322864
 30
0.0
 11
162.0002917405
 21
170.3360322864
 31
0.0
  0
LINE
  5
A3
330
1F
100
AcDbEntity
  8
0
  6
Continuous
 62
     7
370
    25
100
AcDbLine
 10
117.6643933556
 20
170.3360322864
 30
0.0
 11
115.9323425481
 21
169.3360322864
 31
0.0
  0
LINE
  5
A4
330
1F
100
AcDbEntity
  8
0
  6
Continuous
 62
     7
370
    25
100
AcDbLine
 10
115.9323425481
 20
171.3360322864
 30
0.0
 11
117.6643933556
 21
170.3360322864
 31
0.0
  0
LINE
  5
A5
330
1F
100
AcDbEntity
  8
0
  6
Continuous
 62
     7
370
    25
100
AcDbLine
 10
162.0002917405
 20
170.3360322864
 30
0.0
 11
163.7323425481
 21
171.3360322864
 31
0.0
  0
LINE
  5
A6
330
1F
100
AcDbEntity
  8
0
  6
Continuous
 62
     7
370
    25
100
AcDbLine
 10
163.7323425481
 20
171.3360322864
 30
0.0
 11
162.0002917405
 21
172.3360322864
 31
0.0
  0
LINE
  5
A7
330
1F
100
AcDbEntity
  8
0
  6
Continuous
 62
     7
370
    25
100
AcDbLine
 10
117.6643933556
 20
172.3360322864
 30
0.0
 11
115.9323425481
 21
171.3360322864
 31
0.0
  0
LINE
  5
A8
330
1F
100
AcDbEntity
  8
0
  6
Continuous
 62
     7
370
    25
100
AcDbLine
 10
115.9323425481
 20
173.3360322864
 30
0.0
 11
117.6643933556
 21
172.3360322864
 31
0.0
  0
LINE
  5
A9
330
1F
100
AcDbEntity
  8
0
  6
Continuous
 62
     7
370
    25
100
AcDbLine
 10
162.0002917405
 20
172.3360322864
 30
0.0
 11
163.7323425481
 21
173.3360322864
 31
0.0
  0
LINE
  5
AA
330
1F
100
AcDbEntity
  8
0
  6
Continuous
 62
     7
370
    25
100
AcDbLine
 10
163.7323425481
 20
173.3360322864
 30
0.0
 11
162.0002917405
 21
174.3360322864
 31
0.0
  0
LINE
  5
AB
330
1F
100
AcDbEntity
  8
0
  6
Continuous
 62
     7
370
    25
100
AcDbLine
 10
117.6643933556
 20
174.3360322864
 30
0.0
 11
115.9323425481
 21
173.3360322864
 31
0.0
  0
LINE
  5
AC
330
1F
100
AcDbEntity
  8
0
  6
Continuous
 62
     7
370
    25
100
AcDbLine
 10
115.9323425481
 20
175.3360322864
 30
0.0
 11
117.6643933556
 21
174.3360322864
 31
0.0
  0
LINE
  5
AD
330
1F
100
AcDbEntity
  8
0
  6
Continuous
 62
     7
370
    25
100
AcDbLine
 10
162.0002917405
 20
174.3360322864
 30
0.0
 11
163.7323425481
 21
175.3360322864
 31
0.0
  0
LINE
  5
AE
330
1F
100
AcDbEntity
  8
0
  6
Continuous
 62
     7
370
    25
100
AcDbLine
 10
163.7323425481
 20
175.3360322864
 30
0.0
 11
163.7323425481
 21
192.1360322864
 31
0.0
  0
LINE
  5
AF
330
1F
100
AcDbEntity
  8
0
  6
Continuous
 62
     7
370
    25
100
AcDbLine
 10
115.9323425481
 20
192.1360322864
 30
0.0
 11
115.9323425481
 21
175.3360322864
 31
0.0
  0
LINE
  5
B0
330
1F
100
AcDbEntity
  8
0
  6
Continuous
 62
     7
370
    25
100
AcDbLine
 10
137.6859136194
 20
192.1360322864
 30
0.0
 11
137.6859136194
 21
208.1360322864
 31
0.0
  0
LINE
  5
B1
330
1F
100
AcDbEntity
  8
0
  6
Continuous
 62
     7
370
    25
100
AcDbLine
 10
141.9787714767
 20
208.1360322864
 30
0.0
 11
137.6859136194
 21
208.1360322864
 31
0.0
  0
LINE
  5
B2
330
1F
100
AcDbEntity
  8
0
  6
Continuous
 62
     7
370
    25
100
AcDbLine
 10
141.9787714767
 20
208.1360322864
 30
0.0
 11
141.9787714767
 21
192.1360322864
 31
0.0
  0
LINE
  5
B3
330
1F
100
AcDbEntity
  8
0
  6
Continuous
 62
     7
370
    25
100
AcDbLine
 10
141.9787714767
 20
192.1360322864
 30
0.0
 11
137.6859136194
 21
192.1360322864
 31
0.0
  0
LINE
  5
B4
330
1F
100
AcDbEntity
  8
0
  6
Continuous
 62
     7
370
    25
100
AcDbLine
 10
101.9787714767
 20
208.1360322864
 30
0.0
 11
101.9787714767
 21
192.1360322864
 31
0.0
  0
LINE
  5
B5
330
1F
100
AcDbEntity
  8
0
  6
Continuous
 62
     7
370
    25
100
AcDbLine
 10
137.6859136194
 20
208.1360322864
 30
0.0
 11
101.9787714767
 21
208.1360322864
 31
0.0
  0
LINE
  5
B6
330
1F
100
AcDbEntity
  8
0
  6
Continuous
 62
     7
370
    25
100
AcDbLine
 10
101.9787714767
 20
192.1360322864
 30
0.0
 11
137.6859136194
 21
192.1360322864
 31
0.0
  0
LINE
  5
B7
330
1F
100
AcDbEntity
  8
0
  6
Continuous
 62
     7
370
    25
100
AcDbLine
 10
177.6859136194
 20
192.1360322864
 30
0.0
 11
177.6859136194
 21
208.1360322864
 31
0.0
  0
LINE
  5
B8
330
1F
100
AcDbEntity
  8
0
  6
Continuous
 62
     7
370
    25
100
AcDbLine
 10
177.6859136194
 20
208.1360322864
 30
0.0
 11
141.9787714767
 21
208.1360322864
 31
0.0
  0
LINE
  5
B9
330
1F
100
AcDbEntity
  8
0
  6
Continuous
 62
     7
370
    25
100
AcDbLine
 10
141.9787714767
 20
192.1360322864
 30
0.0
 11
177.6859136194
 21
192.1360322864
 31
0.0
  0
LINE
  5
BA
330
1F
100
AcDbEntity
  8
0
  6
Continuous
 62
     7
370
    25
100
AcDbLine
 10
171.3323425481
 20
271.1360322864
 30
0.0
 11
108.3323425481
 21
271.1360322864
 31
0.0
  0
LINE
  5
BB
330
1F
100
AcDbEntity
  8
0
  6
Continuous
 62
     7
370
    25
100
AcDbLine
 10
179.8323425481
 20
208.1360322864
 30
0.0
 11
179.8323425481
 21
192.1360322864
 31
0.0
  0
LINE
  5
BC
330
1F
100
AcDbEntity
  8
0
  6
Continuous
 62
     7
370
    25
100
AcDbLine
 10
179.8323425481
 20
208.1360322864
 30
0.0
 11
177.6859136194
 21
208.1360322864
 31
0.0
  0
LINE
  5
BD
330
1F
100
AcDbEntity
  8
0
  6
Continuous
 62
     7
370
    25
100
AcDbLine
 10
179.8323425481
 20
192.1360322864
 30
0.0
 11
177.6859136194
 21
192.1360322864
 31
0.0
  0
LINE
  5
BE
330
1F
100
AcDbEntity
  8
0
  6
Continuous
 62
     7
370
    25
100
AcDbLine
 10
99.8323425481
 20
192.1360322864
 30
0.0
 11
99.8323425481
 21
208.1360322864
 31
0.0
  0
LINE
  5
BF
330
1F
100
AcDbEntity
  8
0
  6
Continuous
 62
     7
370
    25
100
AcDbLine
 10
101.9787714767
 20
208.1360322864
 30
0.0
 11
99.8323425481
 21
208.1360322864
 31
0.0
  0
LINE
  5
C0
330
1F
100
AcDbEntity
  8
0
  6
Continuous
 62
     7
370
    25
100
AcDbLine
 10
101.9787714767
 20
192.1360322864
 30
0.0
 11
99.8323425481
 21
192.1360322864
 31
0.0
  0
LINE
  5
C1
330
1F
100
AcDbEntity
  8
0
  6
Continuous
 62
     7
370
    25
100
AcDbLine
 10
163.7323425481
 20
169.3360322864
 30
0.0
 11
115.9323425481
 21
169.3360322864
 31
0.0
  0
LINE
  5
C2
330
1F
100
AcDbEntity
  8
0
  6
Continuous
 62
     7
370
    25
100
AcDbLine
 10
163.7323425481
 20
169.1360322864
 30
0.0
 11
115.9323425481
 21
169.1360322864
 31
0.0
  0
LINE
  5
C3
330
1F
100
AcDbEntity
  8
0
  6
Continuous
 62
     7
370
    25
100
AcDbLine
 10
162.0002917405
 20
170.3360322864
 30
0.0
 11
117.6643933556
 21
170.3360322864
 31
0.0
  0
LINE
  5
C4
330
1F
100
AcDbEntity
  8
0
  6
Continuous
 62
     7
370
    25
100
AcDbLine
 10
163.7323425481
 20
171.3360322864
 30
0.0
 11
115.9323425481
 21
171.3360322864
 31
0.0
  0
LINE
  5
C5
330
1F
100
AcDbEntity
  8
0
  6
Continuous
 62
     7
370
    25
100
AcDbLine
 10
162.0002917405
 20
172.3360322864
 30
0.0
 11
117.6643933556
 21
172.3360322864
 31
0.0
  0
LINE
  5
C6
330
1F
100
AcDbEntity
  8
0
  6
Continuous
 62
     7
370
    25
100
AcDbLine
 10
163.7323425481
 20
173.3360322864
 30
0.0
 11
115.9323425481
 21
173.3360322864
 31
0.0
  0
LINE
  5
C7
330
1F
100
AcDbEntity
  8
0
  6
Continuous
 62
     7
370
    25
100
AcDbLine
 10
162.0002917405
 20
174.3360322864
 30
0.0
 11
117.6643933556
 21
174.3360322864
 31
0.0
  0
LINE
  5
C8
330
1F
100
AcDbEntity
  8
0
  6
Continuous
 62
     7
370
    25
100
AcDbLine
 10
163.7323425481
 20
175.3360322864
 30
0.0
 11
115.9323425481
 21
175.3360322864
 31
0.0
  0
LINE
  5
C9
330
1F
100
AcDbEntity
  8
0
  6
Continuous
 62
     7
370
    25
100
AcDbLine
 10
269.6148754482
 20
77.2440552885
 30
0.0
 11
332.6148754482
 21
77.2440552885
 31
0.0
  0
LINE
  5
CA
330
1F
100
AcDbEntity
  8
0
  6
Continuous
 62
     7
370
    25
100
AcDbLine
 10
332.6148754482
 20
140.2440552885
 30
0.0
 11
269.6148754482
 21
140.2440552885
 31
0.0
  0
LINE
  5
CB
330
1F
100
AcDbEntity
  8
0
  6
Continuous
 62
     7
370
    25
100
AcDbLine
 10
230.8148754482
 20
84.8440552885
 30
0.0
 11
231.8148754482
 21
86.576106096
 31
0.0
  0
LINE
  5
CC
330
1F
100
AcDbEntity
  8
0
  6
Continuous
 62
     7
370
    25
100
AcDbLine
 10
231.8148754482
 20
130.9120044809
 30
0.0
 11
230.8148754482
 21
132.6440552885
 31
0.0
  0
LINE
  5
CD
330
1F
100
AcDbEntity
  8
0
  6
Continuous
 62
     7
370
    25
100
AcDbLine
 10
230.6148754482
 20
84.8440552885
 30
0.0
 11
230.8148754482
 21
84.8440552885
 31
0.0
  0
LINE
  5
CE
330
1F
100
AcDbEntity
  8
0
  6
Continuous
 62
     7
370
    25
100
AcDbLine
 10
230.8148754482
 20
132.6440552885
 30
0.0
 11
230.6148754482
 21
132.6440552885
 31
0.0
  0
LINE
  5
CF
330
1F
100
AcDbEntity
  8
0
  6
Continuous
 62
     7
370
    25
100
AcDbLine
 10
232.8148754482
 20
132.6440552885
 30
0.0
 11
231.8148754482
 21
130.9120044809
 31
0.0
  0
LINE
  5
D0
330
1F
100
AcDbEntity
  8
0
  6
Continuous
 62
     7
370
    25
100
AcDbLine
 10
231.8148754482
 20
86.576106096
 30
0.0
 11
232.8148754482
 21
84.8440552885
 31
0.0
  0
LINE
  5
D1
330
1F
100
AcDbEntity
  8
0
  6
Continuous
 62
     7
370
    25
100
AcDbLine
 10
232.8148754482
 20
84.8440552885
 30
0.0
 11
233.8148754482
 21
86.576106096
 31
0.0
  0
LINE
  5
D2
330
1F
100
AcDbEntity
  8
0
  6
Continuous
 62
     7
370
    25
100
AcDbLine
 10
233.8148754482
 20
130.9120044809
 30
0.0
 11
232.8148754482
 21
132.6440552885
 31
0.0
  0
LINE
  5
D3
330
1F
100
AcDbEntity
  8
0
  6
Continuous
 62
     7
370
    25
100
AcDbLine
 10
234.8148754482
 20
132.6440552885
 30
0.0
 11
233.8148754482
 21
130.9120044809
 31
0.0
  0
LINE
  5
D4
330
1F
100
AcDbEntity
  8
0
  6
Continuous
 62
     7
370
    25
100
AcDbLine
 10
233.8148754482
 20
86.576106096
 30
0.0
 11
234.8148754482
 21
84.8440552885
 31
0.0
  0
LINE
  5
D5
330
1F
100
AcDbEntity
  8
0
  6
Continuous
 62
     7
370
    25
100
AcDbLine
 10
234.8148754482
 20
84.8440552885
 30
0.0
 11
235.8148754482
 21
86.576106096
 31
0.0
  0
LINE
  5
D6
330
1F
100
AcDbEntity
  8
0
  6
Continuous
 62
     7
370
    25
100
AcDbLine
 10
235.8148754482
 20
130.9120044809
 30
0.0
 11
234.8148754482
 21
132.6440552885
 31
0.0
  0
LINE
  5
D7
330
1F
100
AcDbEntity
  8
0
  6
Continuous
 62
     7
370
    25
100
AcDbLine
 10
236.8148754482
 20
132.6440552885
 30
0.0
 11
235.8148754482
 21
130.9120044809
 31
0.0
  0
LINE
  5
D8
330
1F
100
AcDbEntity
  8
0
  6
Continuous
 62
     7
370
    25
100
AcDbLine
 10
235.8148754482
 20
86.576106096
 30
0.0
 11
236.8148754482
 21
84.8440552885
 31
0.0
  0
LINE
  5
D9
330
1F
100
AcDbEntity
  8
0
  6
Continuous
 62
     7
370
    25
100
AcDbLine
 10
236.8148754482
 20
84.8440552885
 30
0.0
 11
253.6148754482
 21
84.8440552885
 31
0.0
  0
LINE
  5
DA
330
1F
100
AcDbEntity
  8
0
  6
Continuous
 62
     7
370
    25
100
AcDbLine
 10
253.6148754482
 20
132.6440552885
 30
0.0
 11
236.8148754482
 21
132.6440552885
 31
0.0
  0
LINE
  5
DB
330
1F
100
AcDbEntity
  8
0
  6
Continuous
 62
     7
370
    25
100
AcDbLine
 10
269.6148754482
 20
153.7440552885
 30
0.0
 11
253.6148754482
 21
153.7440552885
 31
0.0
  0
LINE
  5
DC
330
1F
100
AcDbEntity
  8
0
  6
Continuous
 62
     7
370
    25
100
AcDbLine
 10
253.6148754482
 20
63.7440552885
 30
0.0
 11
269.6148754482
 21
63.7440552885
 31
0.0
  0
LINE
  5
DD
330
1F
100
AcDbEntity
  8
0
  6
Continuous
 62
     7
370
    25
100
AcDbLine
 10
269.6148754482
 20
129.3595834165
 30
0.0
 11
253.6148754482
 21
129.3595834165
 31
0.0
  0
LINE
  5
DE
330
1F
100
AcDbEntity
  8
0
  6
Continuous
 62
     7
370
    25
100
AcDbLine
 10
269.6148754482
 20
88.1285271604
 30
0.0
 11
269.6148754482
 21
129.3595834165
 31
0.0
  0
LINE
  5
DF
330
1F
100
AcDbEntity
  8
0
  6
Continuous
 62
     7
370
    25
100
AcDbLine
 10
253.6148754482
 20
88.1285271604
 30
0.0
 11
269.6148754482
 21
88.1285271604
 31
0.0
  0
LINE
  5
E0
330
1F
100
AcDbEntity
  8
0
  6
Continuous
 62
     7
370
    25
100
AcDbLine
 10
253.6148754482
 20
129.3595834165
 30
0.0
 11
253.6148754482
 21
88.1285271604
 31
0.0
  0
LINE
  5
E1
330
1F
100
AcDbEntity
  8
0
  6
Continuous
 62
     7
370
    25
100
AcDbLine
 10
269.6148754482
 20
84.4108032011
 30
0.0
 11
269.6148754482
 21
88.1285271604
 31
0.0
  0
LINE
  5
E2
330
1F
100
AcDbEntity
  8
0
  6
Continuous
 62
     7
370
    25
100
AcDbLine
 10
269.6148754482
 20
84.4108032011
 30
0.0
 11
253.6148754482
 21
84.4108032011
 31
0.0
  0
LINE
  5
E3
330
1F
100
AcDbEntity
  8
0
  6
Continuous
 62
     7
370
    25
100
AcDbLine
 10
253.6148754482
 20
84.4108032011
 30
0.0
 11
253.6148754482
 21
88.1285271604
 31
0.0
  0
LINE
  5
E4
330
1F
100
AcDbEntity
  8
0
  6
Continuous
 62
     7
370
    25
100
AcDbLine
 10
269.6148754482
 20
129.3595834165
 30
0.0
 11
269.6148754482
 21
133.0773073758
 31
0.0
  0
LINE
  5
E5
330
1F
100
AcDbEntity
  8
0
  6
Continuous
 62
     7
370
    25
100
AcDbLine
 10
253.6148754482
 20
133.0773073758
 30
0.0
 11
269.6148754482
 21
133.0773073758
 31
0.0
  0
LINE
  5
E6
330
1F
100
AcDbEntity
  8
0
  6
Continuous
 62
     7
370
    25
100
AcDbLine
 10
253.6148754482
 20
129.3595834165
 30
0.0
 11
253.6148754482
 21
133.0773073758
 31
0.0
  0
LINE
  5
E7
330
1F
100
AcDbEntity
  8
0
  6
Continuous
 62
     7
370
    25
100
AcDbLine
 10
253.6148754482
 20
63.795275073
 30
0.0
 11
269.6148754482
 21
63.795275073
 31
0.0
  0
LINE
  5
E8
330
1F
100
AcDbEntity
  8
0
  6
Continuous
 62
     7
370
    25
100
AcDbLine
 10
269.6148754482
 20
63.795275073
 30
0.0
 11
269.6148754482
 21
84.4108032011
 31
0.0
  0
LINE
  5
E9
330
1F
100
AcDbEntity
  8
0
  6
Continuous
 62
     7
370
    25
100
AcDbLine
 10
253.6148754482
 20
84.4108032011
 30
0.0
 11
253.6148754482
 21
63.795275073
 31
0.0
  0
LINE
  5
EA
330
1F
100
AcDbEntity
  8
0
  6
Continuous
 62
     7
370
    25
100
AcDbLine
 10
269.6148754482
 20
153.6928355039
 30
0.0
 11
253.6148754482
 21
153.6928355039
 31
0.0
  0
LINE
  5
EB
330
1F
100
AcDbEntity
  8
0
  6
Continuous
 62
     7
370
    25
100
AcDbLine
 10
269.6148754482
 20
133.0773073758
 30
0.0
 11
269.6148754482
 21
153.6928355039
 31
0.0
  0
LINE
  5
EC
330
1F
100
AcDbEntity
  8
0
  6
Continuous
 62
     7
370
    25
100
AcDbLine
 10
253.6148754482
 20
153.6928355039
 30
0.0
 11
253.6148754482
 21
133.0773073758
 31
0.0
  0
LINE
  5
ED
330
1F
100
AcDbEntity
  8
0
  6
Continuous
 62
     7
370
    25
100
AcDbLine
 10
332.6148754482
 20
108.7440552885
 30
0.0
 11
332.6148754482
 21
140.2440552885
 31
0.0
  0
LINE
  5
EE
330
1F
100
AcDbEntity
  8
0
  6
Continuous
 62
     7
370
    25
100
AcDbLine
 10
332.6148754482
 20
77.2440552885
 30
0.0
 11
332.6148754482
 21
108.7440552885
 31
0.0
  0
LINE
  5
EF
330
1F
100
AcDbEntity
  8
0
  6
Continuous
 62
     7
370
    25
100
AcDbLine
 10
231.8148754482
 20
108.7440552885
 30
0.0
 11
231.8148754482
 21
130.9120044809
 31
0.0
  0
LINE
  5
F0
330
1F
100
AcDbEntity
  8
0
  6
Continuous
 62
     7
370
    25
100
AcDbLine
 10
231.8148754482
 20
86.576106096
 30
0.0
 11
231.8148754482
 21
108.7440552885
 31
0.0
  0
LINE
  5
F1
330
1F
100
AcDbEntity
  8
0
  6
Continuous
 62
     7
370
    25
100
AcDbLine
 10
230.8148754482
 20
108.7440552885
 30
0.0
 11
230.8148754482
 21
132.6440552885
 31
0.0
  0
LINE
  5
F2
330
1F
100
AcDbEntity
  8
0
  6
Continuous
 62
     7
370
    25
100
AcDbLine
 10
230.8148754482
 20
84.8440552885
 30
0.0
 11
230.8148754482
 21
108.7440552885
 31
0.0
  0
LINE
  5
F3
330
1F
100
AcDbEntity
  8
0
  6
Continuous
 62
     7
370
    25
100
AcDbLine
 10
230.6148754482
 20
108.7440552885
 30
0.0
 11
230.6148754482
 21
132.6440552885
 31
0.0
  0
LINE
  5
F4
330
1F
100
AcDbEntity
  8
0
  6
Continuous
 62
     7
370
    25
100
AcDbLine
 10
230.6148754482
 20
84.8440552885
 30
0.0
 11
230.6148754482
 21
108.7440552885
 31
0.0
  0
LINE
  5
F5
330
1F
100
AcDbEntity
  8
0
  6
Continuous
 62
     7
370
    25
100
AcDbLine
 10
232.8148754482
 20
108.7440552885
 30
0.0
 11
232.8148754482
 21
132.6440552885
 31
0.0
  0
LINE
  5
F6
330
1F
100
AcDbEntity
  8
0
  6
Continuous
 62
     7
370
    25
100
AcDbLine
 10
232.8148754482
 20
84.8440552885
 30
0.0
 11
232.8148754482
 21
108.7440552885
 31
0.0
  0
LINE
  5
F7
330
1F
100
AcDbEntity
  8
0
  6
Continuous
 62
     7
370
    25
100
AcDbLine
 10
233.8148754482
 20
108.7440552885
 30
0.0
 11
233.8148754482
 21
130.9120044809
 31
0.0
  0
LINE
  5
F8
330
1F
100
AcDbEntity
  8
0
  6
Continuous
 62
     7
370
    25
100
AcDbLine
 10
233.8148754482
 20
86.576106096
 30
0.0
 11
233.8148754482
 21
108.7440552885
 31
0.0
  0
LINE
  5
F9
330
1F
100
AcDbEntity
  8
0
  6
Continuous
 62
     7
370
    25
100
AcDbLine
 10
234.8148754482
 20
108.7440552885
 30
0.0
 11
234.8148754482
 21
132.6440552885
 31
0.0
  0
LINE
  5
FA
330
1F
100
AcDbEntity
  8
0
  6
Continuous
 62
     7
370
    25
100
AcDbLine
 10
234.8148754482
 20
84.8440552885
 30
0.0
 11
234.8148754482
 21
108.7440552885
 31
0.0
  0
LINE
  5
FB
330
1F
100
AcDbEntity
  8
0
  6
Continuous
 62
     7
370
    25
100
AcDbLine
 10
235.8148754482
 20
108.7440552885
 30
0.0
 11
235.8148754482
 21
130.9120044809
 31
0.0
  0
LINE
  5
FC
330
1F
100
AcDbEntity
  8
0
  6
Continuous
 62
     7
370
    25
100
AcDbLine
 10
235.8148754482
 20
86.576106096
 30
0.0
 11
235.8148754482
 21
108.7440552885
 31
0.0
  0
LINE
  5
FD
330
1F
100
AcDbEntity
  8
0
  6
Continuous
 62
     7
370
    25
100
AcDbLine
 10
236.8148754482
 20
108.7440552885
 30
0.0
 11
236.8148754482
 21
132.6440552885
 31
0.0
  0
LINE
  5
FE
330
1F
100
AcDbEntity
  8
0
  6
Continuous
 62
     7
370
    25
100
AcDbLine
 10
236.8148754482
 20
84.8440552885
 30
0.0
 11
236.8148754482
 21
108.7440552885
 31
0.0
  0
LINE
  5
FF
330
1F
100
AcDbEntity
  8
0
  6
Continuous
 62
     7
370
    25
100
AcDbLine
 10
269.6148754482
 20
153.6928355039
 30
0.0
 11
269.6148754482
 21
153.7440552885
 31
0.0
  0
LINE
  5
100
330
1F
100
AcDbEntity
  8
0
  6
Continuous
 62
     7
370
    25
100
AcDbLine
 10
253.6148754482
 20
153.6928355039
 30
0.0
 11
253.6148754482
 21
153.7440552885
 31
0.0
  0
LINE
  5
101
330
1F
100
AcDbEntity
  8
0
  6
Continuous
 62
     7
370
    25
100
AcDbLine
 10
269.6148754482
 20
63.7440552885
 30
0.0
 11
269.6148754482
 21
63.795275073
 31
0.0
  0
LINE
  5
102
330
1F
100
AcDbEntity
  8
0
  6
Continuous
 62
     7
370
    25
100
AcDbLine
 10
253.6148754482
 20
63.7440552885
 30
0.0
 11
253.6148754482
 21
63.795275073
 31
0.0
  0
LINE
  5
103
330
1F
100
AcDbEntity
  8
0
  6
Continuous
 62
     7
370
    25
100
AcDbLine
 10
9.8493662215
 20
140.2440552885
 30
0.0
 11
-53.1506337785
 21
140.2440552885
 31
0.0
  0
LINE
  5
104
330
1F
100
AcDbEntity
  8
0
  6
Continuous
 62
     7
370
    25
100
AcDbLine
 10
-53.1506337785
 20
77.2440552885
 30
0.0
 11
9.8493662215
 21
77.2440552885
 31
0.0
  0
LINE
  5
105
330
1F
100
AcDbEntity
  8
0
  6
Continuous
 62
     7
370
    25
100
AcDbLine
 10
48.8493662215
 20
132.6440552885
 30
0.0
 11
48.6493662215
 21
132.6440552885
 31
0.0
  0
LINE
  5
106
330
1F
100
AcDbEntity
  8
0
  6
Continuous
 62
     7
370
    25
100
AcDbLine
 10
48.6493662215
 20
84.8440552885
 30
0.0
 11
48.8493662215
 21
84.8440552885
 31
0.0
  0
LINE
  5
107
330
1F
100
AcDbEntity
  8
0
  6
Continuous
 62
     7
370
    25
100
AcDbLine
 10
48.6493662215
 20
132.6440552885
 30
0.0
 11
47.6493662215
 21
130.9120044809
 31
0.0
  0
LINE
  5
108
330
1F
100
AcDbEntity
  8
0
  6
Continuous
 62
     7
370
    25
100
AcDbLine
 10
47.6493662215
 20
86.576106096
 30
0.0
 11
48.6493662215
 21
84.8440552885
 31
0.0
  0
LINE
  5
109
330
1F
100
AcDbEntity
  8
0
  6
Continuous
 62
     7
370
    25
100
AcDbLine
 10
46.6493662215
 20
84.8440552885
 30
0.0
 11
47.6493662215
 21
86.576106096
 31
0.0
  0
LINE
  5
10A
330
1F
100
AcDbEntity
  8
0
  6
Continuous
 62
     7
370
    25
100
AcDbLine
 10
47.6493662215
 20
130.9120044809
 30
0.0
 11
46.6493662215
 21
132.6440552885
 31
0.0
  0
LINE
  5
10B
330
1F
100
AcDbEntity
  8
0
  6
Continuous
 62
     7
370
    25
100
AcDbLine
 10
46.6493662215
 20
132.6440552885
 30
0.0
 11
45.6493662215
 21
130.9120044809
 31
0.0
  0
LINE
  5
10C
330
1F
100
AcDbEntity
  8
0
  6
Continuous
 62
     7
370
    25
100
AcDbLine
 10
45.6493662215
 20
86.576106096
 30
0.0
 11
46.6493662215
 21
84.8440552885
 31
0.0
  0
LINE
  5
10D
330
1F
100
AcDbEntity
  8
0
  6
Continuous
 62
     7
370
    25
100
AcDbLine
 10
44.6493662215
 20
84.8440552885
 30
0.0
 11
45.6493662215
 21
86.576106096
 31
0.0
  0
LINE
  5
10E
330
1F
100
AcDbEntity
  8
0
  6
Continuous
 62
     7
370
    25
100
AcDbLine
 10
45.6493662215
 20
130.9120044809
 30
0.0
 11
44.6493662215
 21
132.6440552885
 31
0.0
  0
LINE
  5
10F
330
1F
100
AcDbEntity
  8
0
  6
Continuous
 62
     7
370
    25
100
AcDbLine
 10
44.6493662215
 20
132.6440552885
 30
0.0
 11
43.6493662215
 21
130.9120044809
 31
0.0
  0
LINE
  5
110
330
1F
100
AcDbEntity
  8
0
  6
Continuous
 62
     7
370
    25
100
AcDbLine
 10
43.6493662215
 20
86.576106096
 30
0.0
 11
44.6493662215
 21
84.8440552885
 31
0.0
  0
LINE
  5
111
330
1F
100
AcDbEntity
  8
0
  6
Continuous
 62
     7
370
    25
100
AcDbLine
 10
42.6493662215
 20
84.8440552885
 30
0.0
 11
43.6493662215
 21
86.576106096
 31
0.0
  0
LINE
  5
112
330
1F
100
AcDbEntity
  8
0
  6
Continuous
 62
     7
370
    25
100
AcDbLine
 10
43.6493662215
 20
130.9120044809
 30
0.0
 11
42.6493662215
 21
132.6440552885
 31
0.0
  0
LINE
  5
113
330
1F
100
AcDbEntity
  8
0
  6
Continuous
 62
     7
370
    25
100
AcDbLine
 10
42.6493662215
 20
132.6440552885
 30
0.0
 11
25.8493662215
 21
132.6440552885
 31
0.0
  0
LINE
  5
114
330
1F
100
AcDbEntity
  8
0
  6
Continuous
 62
     7
370
    25
100
AcDbLine
 10
25.8493662215
 20
84.8440552885
 30
0.0
 11
42.6493662215
 21
84.8440552885
 31
0.0
  0
LINE
  5
115
330
1F
100
AcDbEntity
  8
0
  6
Continuous
 62
     7
370
    25
100
AcDbLine
 10
9.8493662215
 20
63.7440552885
 30
0.0
 11
25.8493662215
 21
63.7440552885
 31
0.0
  0
LINE
  5
116
330
1F
100
AcDbEntity
  8
0
  6
Continuous
 62
     7
370
    25
100
AcDbLine
 10
25.8493662215
 20
153.7440552885
 30
0.0
 11
9.8493662215
 21
153.7440552885
 31
0.0
  0
LINE
  5
117
330
1F
100
AcDbEntity
  8
0
  6
Continuous
 62
     7
370
    25
100
AcDbLine
 10
9.8493662215
 20
88.1285271604
 30
0.0
 11
9.8493662215
 21
84.4108032011
 31
0.0
  0
LINE
  5
118
330
1F
100
AcDbEntity
  8
0
  6
Continuous
 62
     7
370
    25
100
AcDbLine
 10
9.8493662215
 20
88.1285271604
 30
0.0
 11
25.8493662215
 21
88.1285271604
 31
0.0
  0
LINE
  5
119
330
1F
100
AcDbEntity
  8
0
  6
Continuous
 62
     7
370
    25
100
AcDbLine
 10
25.8493662215
 20
84.4108032011
 30
0.0
 11
9.8493662215
 21
84.4108032011
 31
0.0
  0
LINE
  5
11A
330
1F
100
AcDbEntity
  8
0
  6
Continuous
 62
     7
370
    25
100
AcDbLine
 10
25.8493662215
 20
88.1285271604
 30
0.0
 11
25.8493662215
 21
84.4108032011
 31
0.0
  0
LINE
  5
11B
330
1F
100
AcDbEntity
  8
0
  6
Continuous
 62
     7
370
    25
100
AcDbLine
 10
9.8493662215
 20
133.0773073758
 30
0.0
 11
9.8493662215
 21
129.3595834165
 31
0.0
  0
LINE
  5
11C
330
1F
100
AcDbEntity
  8
0
  6
Continuous
 62
     7
370
    25
100
AcDbLine
 10
9.8493662215
 20
133.0773073758
 30
0.0
 11
25.8493662215
 21
133.0773073758
 31
0.0
  0
LINE
  5
11D
330
1F
100
AcDbEntity
  8
0
  6
Continuous
 62
     7
370
    25
100
AcDbLine
 10
25.8493662215
 20
129.3595834165
 30
0.0
 11
9.8493662215
 21
129.3595834165
 31
0.0
  0
LINE
  5
11E
330
1F
100
AcDbEntity
  8
0
  6
Continuous
 62
     7
370
    25
100
AcDbLine
 10
25.8493662215
 20
133.0773073758
 30
0.0
 11
25.8493662215
 21
129.3595834165
 31
0.0
  0
LINE
  5
11F
330
1F
100
AcDbEntity
  8
0
  6
Continuous
 62
     7
370
    25
100
AcDbLine
 10
9.8493662215
 20
129.3595834165
 30
0.0
 11
9.8493662215
 21
88.1285271604
 31
0.0
  0
LINE
  5
120
330
1F
100
AcDbEntity
  8
0
  6
Continuous
 62
     7
370
    25
100
AcDbLine
 10
25.8493662215
 20
88.1285271604
 30
0.0
 11
25.8493662215
 21
129.3595834165
 31
0.0
  0
LINE
  5
121
330
1F
100
AcDbEntity
  8
0
  6
Continuous
 62
     7
370
    25
100
AcDbLine
 10
25.8493662215
 20
153.6928355039
 30
0.0
 11
9.8493662215
 21
153.6928355039
 31
0.0
  0
LINE
  5
122
330
1F
100
AcDbEntity
  8
0
  6
Continuous
 62
     7
370
    25
100
AcDbLine
 10
9.8493662215
 20
153.6928355039
 30
0.0
 11
9.8493662215
 21
133.0773073758
 31
0.0
  0
LINE
  5
123
330
1F
100
AcDbEntity
  8
0
  6
Continuous
 62
     7
370
    25
100
AcDbLine
 10
25.8493662215
 20
133.0773073758
 30
0.0
 11
25.8493662215
 21
153.6928355039
 31
0.0
  0
LINE
  5
124
330
1F
100
AcDbEntity
  8
0
  6
Continuous
 62
     7
370
    25
100
AcDbLine
 10
9.8493662215
 20
63.795275073
 30
0.0
 11
25.8493662215
 21
63.795275073
 31
0.0
  0
LINE
  5
125
330
1F
100
AcDbEntity
  8
0
  6
Continuous
 62
     7
370
    25
100
AcDbLine
 10
9.8493662215
 20
84.4108032011
 30
0.0
 11
9.8493662215
 21
63.795275073
 31
0.0
  0
LINE
  5
126
330
1F
100
AcDbEntity
  8
0
  6
Continuous
 62
     7
370
    25
100
AcDbLine
 10
25.8493662215
 20
63.795275073
 30
0.0
 11
25.8493662215
 21
84.4108032011
 31
0.0
  0
LINE
  5
127
330
1F
100
AcDbEntity
  8
0
  6
Continuous
 62
     7
370
    25
100
AcDbLine
 10
-53.1506337785
 20
140.2440552885
 30
0.0
 11
-53.1506337785
 21
77.2440552885
 31
0.0
  0
LINE
  5
128
330
1F
100
AcDbEntity
  8
0
  6
Continuous
 62
     7
370
    25
100
AcDbLine
 10
48.6493662215
 20
132.6440552885
 30
0.0
 11
48.6493662215
 21
84.8440552885
 31
0.0
  0
LINE
  5
129
330
1F
100
AcDbEntity
  8
0
  6
Continuous
 62
     7
370
    25
100
AcDbLine
 10
48.8493662215
 20
132.6440552885
 30
0.0
 11
48.8493662215
 21
84.8440552885
 31
0.0
  0
LINE
  5
12A
330
1F
100
AcDbEntity
  8
0
  6
Continuous
 62
     7
370
    25
100
AcDbLine
 10
47.6493662215
 20
130.9120044809
 30
0.0
 11
47.6493662215
 21
86.576106096
 31
0.0
  0
LINE
  5
12B
330
1F
100
AcDbEntity
  8
0
  6
Continuous
 62
     7
370
    25
100
AcDbLine
 10
46.6493662215
 20
132.6440552885
 30
0.0
 11
46.6493662215
 21
84.8440552885
 31
0.0
  0
LINE
  5
12C
330
1F
100
AcDbEntity
  8
0
  6
Continuous
 62
     7
370
    25
100
AcDbLine
 10
45.6493662215
 20
130.9120044809
 30
0.0
 11
45.6493662215
 21
86.576106096
 31
0.0
  0
LINE
  5
12D
330
1F
100
AcDbEntity
  8
0
  6
Continuous
 62
     7
370
    25
100
AcDbLine
 10
44.6493662215
 20
132.6440552885
 30
0.0
 11
44.6493662215
 21
84.8440552885
 31
0.0
  0
LINE
  5
12E
330
1F
100
AcDbEntity
  8
0
  6
Continuous
 62
     7
370
    25
100
AcDbLine
 10
43.6493662215
 20
130.9120044809
 30
0.0
 11
43.6493662215
 21
86.576106096
 31
0.0
  0
LINE
  5
12F
330
1F
100
AcDbEntity
  8
0
  6
Continuous
 62
     7
370
    25
100
AcDbLine
 10
42.6493662215
 20
132.6440552885
 30
0.0
 11
42.6493662215
 21
84.8440552885
 31
0.0
  0
LINE
  5
130
330
1F
100
AcDbEntity
  8
0
  6
Continuous
 62
     7
370
    25
100
AcDbLine
 10
9.8493662215
 20
63.795275073
 30
0.0
 11
9.8493662215
 21
63.7440552885
 31
0.0
  0
LINE
  5
131
330
1F
100
AcDbEntity
  8
0
  6
Continuous
 62
     7
370
    25
100
AcDbLine
 10
25.8493662215
 20
63.795275073
 30
0.0
 11
25.8493662215
 21
63.7440552885
 31
0.0
  0
LINE
  5
132
330
1F
100
AcDbEntity
  8
0
  6
Continuous
 62
     7
370
    25
100
AcDbLine
 10
9.8493662215
 20
153.7440552885
 30
0.0
 11
9.8493662215
 21
153.6928355039
 31
0.0
  0
LINE
  5
133
330
1F
100
AcDbEntity
  8
0
  6
Continuous
 62
     7
370
    25
100
AcDbLine
 10
25.8493662215
 20
153.7440552885
 30
0.0
 11
25.8493662215
 21
153.6928355039
 31
0.0
  0
LINE
  5
134
330
1F
100
AcDbEntity
  8
0
  6
Continuous
 62
     7
370
    25
100
AcDbLine
 10
294.1119309189
 20
20.3729809703
 30
0.0
 11
249.5642037041
 21
46.0898364927
 31
0.0
  0
LINE
  5
135
330
1F
100
AcDbEntity
  8
0
  6
Continuous
 62
     7
370
    25
100
AcDbLine
 10
218.0667636261
 20
-8.4712418373
 30
0.0
 11
262.6144908408
 21
-34.1880973597
 31
0.0
  0
LWPOLYLINE
  5
136
330
1F
100
AcDbEntity
  8
0
  6
Continuous
 62
     7
370
    25
100
AcDbPolyline
 90
      108
 70
   128
 43
0.0
 10
211.5416200577
 20
5.9508695665
 10
211.5800113688
 20
7.4825386752
 10
211.6950529592
 20
9.0532534674
 10
211.8863482567
 20
10.6575993639
 10
212.1532378269
 20
12.2900458519
 10
212.4948016461
 20
13.9449655504
 10
212.909862273
 20
15.6166536082
 10
213.3969889077
 20
17.2993473702
 10
213.9545023237
 20
18.9872462426
 10
214.5804806569
 20
20.6745316882
 10
215.2727660302
 20
22.3553872846
 10
216.0289719925
 20
24.0240187743
 10
216.8464917452
 20
25.6746740388
 10
217.7225071284
 20
27.3016629276
 10
218.6539983355
 20
28.8993768729
 10
219.6377543235
 20
30.4623082237
 10
220.6703838816
 20
31.9850692319
 10
221.7483273218
 20
33.4624106249
 10
222.8678687497
 20
34.8892397007
 10
224.0251488742
 20
36.260637884
 10
225.2161783109
 20
37.5718776812
 10
226.4368513346
 20
38.818438977
 10
227.6829600325
 20
39.9960246165
 10
228.9502088098
 20
41.1005752179
 10
230.2342291974
 20
42.1282831665
 10
231.5305949111
 20
43.0756057401
 10
232.8348371097
 20
43.9392773216
 10
234.1424598
 20
44.7163206561
 10
235.4489553359
 20
45.4040571142
 10
236.7498199566
 20
46.000115926
 10
238.0405693122
 20
46.5024423531
 10
239.3167539222
 20
46.9093047724
 10
240.5739745141
 20
47.2193006448
 10
241.8078971879
 20
47.4313613503
 10
243.0142683565
 20
47.5447558717
 10
244.1889294087
 20
47.5590933147
 10
245.3278310445
 20
47.474324255
 10
246.4270472339
 20
47.2907409092
 10
247.482788751
 20
47.0089761271
 10
248.4914162362
 20
46.6300012104
 10
249.4494527416
 20
46.1551225639
 10
250.3535957167
 20
45.5859771929
 10
251.2007283936
 20
44.9245270593
 10
251.9879305303
 20
44.1730523187
 10
252.7124884781
 20
43.3341434603
 10
253.3719045355
 20
42.4106923766
 10
253.9639055588
 20
41.405882395
 10
254.486450798
 20
40.3231773034
 10
254.9377389311
 20
39.1663094107
 10
255.3162142747
 20
37.9392666802
 10
255.6205721457
 20
36.6462789824
 10
255.8497633596
 20
35.2918035136
 10
256.0029978466
 20
33.8805094315
 10
256.079747376
 20
32.4172617591
 10
256.079747376
 20
30.9071046142
 10
256.0029978466
 20
29.3552438214
 10
255.8497633596
 20
27.7670289664
 10
255.6205721457
 20
26.1479349547
 10
255.3162142747
 20
24.5035431388
 10
254.9377389311
 20
22.8395220779
 10
254.486450798
 20
21.1616079975
 10
253.9639055588
 20
19.4755850148
 10
253.3719045355
 20
17.7872652005
 10
252.7124884781
 20
16.1024685427
 10
251.9879305303
 20
14.4270028844
 10
251.2007283936
 20
12.7666439029
 10
250.3535957167
 20
11.1271151995
 10
249.4494527416
 20
9.5140685694
 10
248.4914162362
 20
7.9330645185
 10
247.482788751
 20
6.3895530952
 10
246.4270472339
 20
4.8888551031
 10
245.3278310445
 20
3.4361437592
 10
244.1889294087
 20
2.0364268604
 10
243.0142683565
 20
0.6945295207
 10
241.8078971879
 20
-0.5849224616
 10
240.5739745141
 20
-1.7975185506
 10
239.3167539222
 20
-2.9390786764
 10
238.0405693122
 20
-4.0056676446
 10
236.7498199566
 20
-4.9936087021
 10
235.4489553359
 20
-5.8994962116
 10
234.1424598
 20
-6.720207391
 10
232.8348371097
 20
-7.4529130789
 10
231.5305949111
 20
-8.095087487
 10
230.2342291974
 20
-8.6445169071
 10
228.9502088098
 20
-9.0993073422
 10
227.6829600325
 20
-9.4578910353
 10
226.4368513346
 20
-9.7190318744
 10
225.2161783109
 20
-9.8818296526
 10
224.0251488742
 20
-9.9457231725
 10
222.8678687497
 20
-9.9104921798
 10
221.7483273218
 20
-9.7762581231
 10
220.6703838816
 20
-9.5434837348
 10
219.6377543235
 20
-9.2129714367
 10
218.6539983355
 20
-8.7858605729
 10
217.7225071284
 20
-8.2636234833
 10
216.8464917452
 20
-7.6480604271
 10
216.0289719925
 20
-6.9412933778
 10
215.2727660302
 20
-6.1457587078
 10
214.5804806569
 20
-5.2641987899
 10
213.9545023237
 20
-4.2996525438
 10
213.3969889077
 20
-3.2554449603
 10
212.909862273
 20
-2.1351756391
 10
212.4948016461
 20
-0.9427063806
 10
212.1532378269
 20
0.3178521264
 10
211.8863482567
 20
1.6421544758
 10
211.6950529592
 20
3.0256355229
 10
211.5800113688
 20
4.4635261221
 10
211.5416200577
 20
5.9508695665
  0
LWPOLYLINE
  5
137
330
1F
100
AcDbEntity
  8
0
  6
Continuous
 62
     7
370
    25
100
AcDbPolyline
 90
       55
 70
   128
 43
0.0
 10
294.1119309189
 20
20.3729809703
 10
294.9013229315
 20
19.8691216705
 10
295.7484556083
 20
19.2076715369
 10
296.5356577451
 20
18.4561967963
 10
297.2602156928
 20
17.6172879379
 10
297.9196317502
 20
16.6938368542
 10
298.5116327736
 20
15.6890268725
 10
299.0341780127
 20
14.606321781
 10
299.4854661459
 20
13.4494538883
 10
299.8639414894
 20
12.2224111578
 10
300.1682993605
 20
10.9294234599
 10
300.3974905743
 20
9.5749479912
 10
300.5507250614
 20
8.1636539091
 10
300.6274745907
 20
6.7004062366
 10
300.6274745907
 20
5.1902490918
 10
300.5507250614
 20
3.638388299
 10
300.3974905743
 20
2.050173444
 10
300.1682993605
 20
0.4310794322
 10
299.8639414894
 20
-1.2133123836
 10
299.4854661459
 20
-2.8773334445
 10
299.0341780127
 20
-4.5552475249
 10
298.5116327736
 20
-6.2412705076
 10
297.9196317502
 20
-7.9295903219
 10
297.2602156928
 20
-9.6143869798
 10
296.5356577451
 20
-11.289852638
 10
295.7484556083
 20
-12.9502116195
 10
294.9013229315
 20
-14.5897403229
 10
293.9971799563
 20
-16.202786953
 10
293.039143451
 20
-17.7837910039
 10
292.0305159658
 20
-19.3273024272
 10
290.9747744486
 20
-20.8280004193
 10
289.8755582592
 20
-22.2807117632
 10
288.7366566235
 20
-23.6804286621
 10
287.5619955713
 20
-25.0223260017
 10
286.3556244026
 20
-26.3017779841
 10
285.1217017288
 20
-27.514374073
 10
283.864481137
 20
-28.6559341988
 10
282.5882965269
 20
-29.722523167
 10
281.2975471713
 20
-30.7104642246
 10
279.9966825507
 20
-31.616351734
 10
278.6901870148
 20
-32.4370629134
 10
277.3825643244
 20
-33.1697686013
 10
276.0783221259
 20
-33.8119430094
 10
274.7819564122
 20
-34.3613724295
 10
273.4979360246
 20
-34.8161628646
 10
272.2306872473
 20
-35.1747465578
 10
270.9845785494
 20
-35.4358873968
 10
269.7639055257
 20
-35.5986851751
 10
268.572876089
 20
-35.662578695
 10
267.4155959645
 20
-35.6273477022
 10
266.2960545365
 20
-35.4931136455
 10
265.2181110963
 20
-35.2603392572
 10
264.1854815382
 20
-34.9298269591
 10
263.2017255503
 20
-34.5027160953
 10
262.6144908408
 20
-34.1880973597
  0
LWPOLYLINE
  5
138
330
1F
100
AcDbEntity
  8
0
  6
Continuous
 62
     7
370
    25
100
AcDbPolyline
 90
       98
 70
   128
 43
0.0
 10
215.6428393886
 20
8.3184530908
 10
215.6809505814
 20
9.6988158522
 10
215.7951243081
 20
11.117391139
 10
215.9848816845
 20
12.5682289536
 10
216.2494268021
 20
14.0452439778
 10
216.5876500669
 20
15.5422410973
 10
216.9981328529
 20
17.0529413861
 10
217.4791534526
 20
18.5710084421
 10
218.0286942985
 20
20.0900749645
 10
218.6444504254
 20
21.6037694604
 10
219.3238391379
 20
23.105742969
 10
220.0640108438
 20
24.5896956914
 10
220.8618610056
 20
26.0494034143
 10
221.7140431627
 20
27.4787436162
 10
222.6169829667
 20
28.8717211474
 10
223.5668931744
 20
30.2224933763
 10
224.5597895322
 20
31.5253946945
 10
225.5915074879
 20
32.7749602812
 10
226.6577196576
 20
33.9659490241
 10
227.7539539771
 20
35.0933655025
 10
228.8756124587
 20
36.1524809398
 10
230.0179904768
 20
37.1388530379
 10
231.1762965011
 20
38.0483446093
 10
232.3456721935
 20
38.8771409304
 10
233.521212786
 20
39.6217657414
 10
234.6979876529
 20
40.279095827
 10
235.8710609913
 20
40.8463741164
 10
237.0355125241
 20
41.3212212474
 10
238.1864581368
 20
41.7016455459
 10
239.3190703635
 20
41.9860513804
 10
240.428598635
 20
42.1732458539
 10
241.5103892041
 20
42.2624438078
 10
242.5599046652
 20
42.2532711147
 10
243.5727429857
 20
42.1457662483
 10
244.5446559697
 20
41.9403801211
 10
245.4715670765
 20
41.6379741942
 10
246.3495885186
 20
41.2398168629
 10
247.1750375691
 20
40.7475781375
 10
247.9444520077
 20
40.1633226384
 10
248.6546046429
 20
39.489500936
 10
249.3025168478
 20
38.7289392728
 10
249.8854710534
 20
37.8848277087
 10
250.4010221472
 20
36.960706741
 10
250.8470077287
 20
35.9604524542
 10
251.2215571794
 20
34.8882602623
 10
251.5230995088
 20
33.748627312
 10
251.7503699434
 20
32.54633362
 10
251.9024152322
 20
31.2864220238
 10
251.9785976444
 20
29.9741770306
 10
251.9785976444
 20
28.6151026518
 10
251.9024152322
 20
27.2148993177
 10
251.7503699434
 20
25.7794399677
 10
251.5230995088
 20
24.3147454172
 10
251.2215571794
 20
22.8269591041
 10
250.8470077287
 20
21.3223213213
 10
250.4010221472
 20
19.8071430425
 10
249.8854710534
 20
18.287779452
 10
249.3025168478
 20
16.7706032888
 10
248.6546046429
 20
15.2619781168
 10
247.9444520077
 20
13.7682316344
 10
247.1750375691
 20
12.2956291333
 10
246.3495885186
 20
10.8503472204
 10
245.4715670765
 20
9.4384479101
 10
244.5446559697
 20
8.0658531989
 10
243.5727429857
 20
6.738320226
 10
242.5599046652
 20
5.461417126
 10
241.5103892041
 20
4.2404996743
 10
240.428598635
 20
3.080688823
 10
239.3190703635
 20
1.9868492218
 10
238.1864581368
 20
0.9635688142
 10
237.0355125241
 20
0.0151395938
 10
235.8710609913
 20
-0.8544603977
 10
234.6979876529
 20
-1.6415837556
 10
233.521212786
 20
-2.342929011
 10
232.3456721935
 20
-2.9555544783
 10
231.1762965011
 20
-3.4768905933
 10
230.0179904768
 20
-3.9047506911
 10
228.8756124587
 20
-4.2373401779
 10
227.7539539771
 20
-4.4732640576
 10
226.6577196576
 20
-4.6115327837
 10
225.5915074879
 20
-4.651566409
 10
224.5597895322
 20
-4.5931970185
 10
223.5668931744
 20
-4.4366694338
 10
222.6169829667
 20
-4.182640186
 10
221.7140431627
 20
-3.8321747619
 10
220.8618610056
 20
-3.3867431355
 10
220.0640108438
 20
-2.8482136016
 10
219.3238391379
 20
-2.2188449405
 10
218.6444504254
 20
-1.5012769428
 10
218.0286942985
 20
-0.6985193382
 10
217.4791534526
 20
0.1860608289
 10
216.9981328529
 20
1.1487533219
 10
216.5876500669
 20
2.1855202739
 10
216.2494268021
 20
3.2920131241
 10
215.9848816845
 20
4.4635908569
 10
215.7951243081
 20
5.6953394681
 10
215.6809505814
 20
6.9820925759
 10
215.6428393886
 20
8.3184530908
  0
LWPOLYLINE
  5
139
330
1F
100
AcDbEntity
  8
0
  6
Continuous
 62
     7
370
    25
100
AcDbPolyline
 90
       34
 70
   128
 43
0.0
 10
222.7139072005
 20
4.2364125317
 10
222.7520183932
 20
5.6167752931
 10
222.8661921199
 20
7.0353505799
 10
223.0559494963
 20
8.4861883944
 10
223.320494614
 20
9.9632034186
 10
223.6587178788
 20
11.4602005382
 10
224.0692006647
 20
12.970900827
 10
224.5502212645
 20
14.488967883
 10
225.0997621104
 20
16.0080344054
 10
225.7155182372
 20
17.5217289012
 10
226.3949069498
 20
19.0237024098
 10
227.1350786556
 20
20.5076551323
 10
227.9329288175
 20
21.9673628552
 10
228.7851109745
 20
23.3967030571
 10
229.6880507785
 20
24.7896805883
 10
230.6379609862
 20
26.1404528172
 10
231.6308573441
 20
27.4433541354
 10
232.6625752997
 20
28.6929197221
 10
233.7287874695
 20
29.883908465
 10
234.825021789
 20
31.0113249434
 10
235.9466802706
 20
32.0704403807
 10
237.0890582887
 20
33.0568124788
 10
238.2473643129
 20
33.9663040502
 10
239.4167400053
 20
34.7951003713
 10
240.5922805979
 20
35.5397251823
 10
241.7690554647
 20
36.1970552679
 10
242.9421288032
 20
36.7643335573
 10
244.1065803359
 20
37.2391806883
 10
245.2575259486
 20
37.6196049868
 10
246.3901381754
 20
37.9040108213
 10
247.4996664469
 20
38.0912052948
 10
248.5814570159
 20
38.1804032487
 10
249.630972477
 20
38.1712305556
 10
249.7041437135
 20
38.1668377379
  0
ARC
  5
13A
330
1F
100
AcDbEntity
  8
0
  6
Continuous
 62
     7
370
    25
100
AcDbCircle
 10
238.6476586527
 20
3.6132936864
 30
0.0
 40
15.94593090529615
100
AcDbArc
 50
177.7604836825
 51
211.1292632405
  0
LWPOLYLINE
  5
13B
330
1F
100
AcDbEntity
  8
0
  6
Continuous
 62
     7
370
    25
100
AcDbPolyline
 90
       25
 70
   128
 43
0.0
 10
236.4317787555
 20
4.2364125317
 10
236.470420806
 20
5.3375906054
 10
236.5860829931
 20
6.4758616781
 10
236.7779752268
 20
7.6434502042
 10
237.0447866886
 20
8.8323803701
 10
237.3846947855
 20
10.0345305773
 10
237.7953776008
 20
11.2416889209
 10
238.2740297543
 20
12.4456092854
 10
238.8173815664
 20
13.6380676738
 10
239.4217213934
 20
14.8109183863
 10
240.0829209814
 20
15.9561496633
 10
240.7964636667
 20
17.0659384138
 10
241.5574752294
 20
18.1327036555
 10
242.3607571888
 20
19.1491582999
 10
243.2008223146
 20
20.1083589313
 10
244.0719321101
 20
21.0037532367
 10
244.9681360122
 20
21.8292247651
 10
245.8833120395
 20
22.5791347088
 10
246.8112086118
 20
23.2483604227
 10
247.7454872545
 20
23.8323304164
 10
248.6797658972
 20
24.3270555829
 10
249.6076624694
 20
24.7291564475
 10
250.5228384967
 20
25.0358862536
 10
251.4190423988
 20
25.2451497257
 10
251.6821007142
 20
25.2885155429
  0
ARC
  5
13C
330
1F
100
AcDbEntity
  8
0
  6
Continuous
 62
     7
370
    25
100
AcDbCircle
 10
247.6535284038
 20
4.0245542601
 30
0.0
 40
11.22374933325341
100
AcDbArc
 50
178.9184268641
 51
200.4828802835
  0
ARC
  5
13D
330
1F
100
AcDbEntity
  8
0
  6
Continuous
 62
     7
370
    25
100
AcDbCircle
 10
257.1787455456
 20
-6.9135252477
 30
0.0
 40
42.40860011410054
100
AcDbArc
 50
297.6289311082
 51
302.3656923591
  0
LINE
  5
13E
330
1F
100
AcDbEntity
  8
0
  6
Continuous
 62
     7
370
    25
100
AcDbLine
 10
276.8454564291
 20
-44.4862526795
 30
0.0
 11
251.5966940832
 21
-42.228632852
 31
0.0
  0
ARC
  5
13F
330
1F
100
AcDbEntity
  8
0
  6
Continuous
 62
     7
370
    25
100
AcDbCircle
 10
265.632208604
 20
-30.7509549779
 30
0.0
 40
18.13098886566785
100
AcDbArc
 50
210.9264271959
 51
219.2749157968
  0
LINE
  5
140
330
1F
100
AcDbEntity
  8
0
  6
Continuous
 62
     7
370
    25
100
AcDbLine
 10
250.0789396324
 20
-40.0691405063
 30
0.0
 11
250.0789396324
 21
-26.9514776828
 31
0.0
  0
ARC
  5
141
330
1F
100
AcDbEntity
  8
0
  6
Continuous
 62
     7
370
    25
100
AcDbCircle
 10
298.965041294
 20
-5.8456040749
 30
0.0
 40
41.2028431331881
100
AcDbArc
 50
117.5920951164
 51
120.5171192779
  0
LINE
  5
142
330
1F
100
AcDbEntity
  8
0
  6
Continuous
 62
     7
370
    25
100
AcDbLine
 10
279.8809653306
 20
30.6711362901
 30
0.0
 11
305.1297276765
 21
28.4135164626
 31
0.0
  0
ARC
  5
143
330
1F
100
AcDbEntity
  8
0
  6
Continuous
 62
     7
370
    25
100
AcDbCircle
 10
291.0942131556
 20
16.9358385885
 30
0.0
 40
18.13098886568037
100
AcDbArc
 50
30.9264271959
 51
39.2749157968
  0
LINE
  5
144
330
1F
100
AcDbEntity
  8
0
  6
Continuous
 62
     7
370
    25
100
AcDbLine
 10
306.6474821273
 20
26.2540241169
 30
0.0
 11
306.6474821273
 21
-7.4128160334
 31
0.0
  0
ARC
  5
145
330
1F
100
AcDbEntity
  8
0
  6
Continuous
 62
     7
370
    25
100
AcDbCircle
 10
238.0951189515
 20
16.934348949
 30
0.0
 40
72.74758373768952
100
AcDbArc
 50
337.1417234065
 51
340.4469168532
  0
LINE
  5
146
330
1F
100
AcDbEntity
  8
0
  6
Continuous
 62
     7
370
    25
100
AcDbLine
 10
305.1297276765
 20
-11.3246703679
 30
0.0
 11
279.8809653306
 21
-42.7338906907
 31
0.0
  0
LINE
  5
147
330
1F
100
AcDbEntity
  8
0
  6
Continuous
 62
     7
370
    25
100
AcDbLine
 10
279.8809653306
 20
-42.7338906907
 30
0.0
 11
291.1946738296
 21
-49.2651555853
 31
0.0
  0
LINE
  5
148
330
1F
100
AcDbEntity
  8
0
  6
Continuous
 62
     7
370
    25
100
AcDbLine
 10
316.4434361755
 20
-17.8559352624
 30
0.0
 11
305.1297276765
 21
-11.3246703679
 31
0.0
  0
LINE
  5
149
330
1F
100
AcDbEntity
  8
0
  6
Continuous
 62
     7
370
    25
100
AcDbLine
 10
291.1946738296
 20
-49.2651555853
 30
0.0
 11
316.4434361755
 21
-17.8559352624
 31
0.0
  0
LINE
  5
14A
330
1F
100
AcDbEntity
  8
0
  6
Continuous
 62
     7
370
    25
100
AcDbLine
 10
306.6474821273
 20
-7.4128160334
 30
0.0
 11
317.9611906263
 21
-13.944080928
 31
0.0
  0
ARC
  5
14B
330
1F
100
AcDbEntity
  8
0
  6
Continuous
 62
     7
370
    25
100
AcDbCircle
 10
249.4088274505
 20
10.4030840545
 30
0.0
 40
72.74758373769163
100
AcDbArc
 50
337.1417234065
 51
340.4469168532
  0
LINE
  5
14C
330
1F
100
AcDbEntity
  8
0
  6
Continuous
 62
     7
370
    25
100
AcDbLine
 10
317.9611906263
 20
19.7227592223
 30
0.0
 11
306.6474821273
 21
26.2540241169
 31
0.0
  0
LINE
  5
14D
330
1F
100
AcDbEntity
  8
0
  6
Continuous
 62
     7
370
    25
100
AcDbLine
 10
317.9611906263
 20
-13.944080928
 30
0.0
 11
317.9611906263
 21
19.7227592223
 31
0.0
  0
LINE
  5
14E
330
1F
100
AcDbEntity
  8
0
  6
Continuous
 62
     7
370
    25
100
AcDbLine
 10
288.159164928
 20
-51.017517574
 30
0.0
 11
276.8454564291
 21
-44.4862526795
 31
0.0
  0
ARC
  5
14F
330
1F
100
AcDbEntity
  8
0
  6
Continuous
 62
     7
370
    25
100
AcDbCircle
 10
268.4924540445
 20
-13.4447901423
 30
0.0
 40
42.40860011411019
100
AcDbArc
 50
297.6289311082
 51
302.3656923591
  0
LINE
  5
150
330
1F
100
AcDbEntity
  8
0
  6
Continuous
 62
     7
370
    25
100
AcDbLine
 10
251.5966940832
 20
-42.228632852
 30
0.0
 11
262.9104025821
 21
-48.7598977465
 31
0.0
  0
LINE
  5
151
330
1F
100
AcDbEntity
  8
0
  6
Continuous
 62
     7
370
    25
100
AcDbLine
 10
262.9104025821
 20
-48.7598977465
 30
0.0
 11
288.159164928
 21
-51.017517574
 31
0.0
  0
LWPOLYLINE
  5
152
330
1F
100
AcDbEntity
  8
0
  6
Continuous
 62
     7
370
    25
100
AcDbPolyline
 90
       33
 70
   128
 43
0.0
 10
317.9611906263
 20
-6.1377798916
 10
317.985883485
 20
-6.2402760363
 10
318.215677019
 20
-7.3988616122
 10
318.3694576974
 20
-8.6162968439
 10
318.4465238542
 20
-9.8870268536
 10
318.4465238542
 20
-11.2052535918
 10
318.3694576974
 20
-12.5649622922
 10
318.215677019
 20
-13.9599489159
 10
317.985883485
 20
-15.3838484588
 10
317.6811255904
 20
-16.830163994
 10
317.3027938759
 20
-18.2922963154
 10
316.852614582
 20
-19.7635740485
 10
316.3326417738
 20
-21.2372840905
 10
315.7452479679
 20
-22.7067022405
 10
315.0931133075
 20
-24.1651238806
 10
314.3792133335
 20
-25.6058945671
 10
313.6068054076
 20
-27.0224403941
 10
312.7794138503
 20
-28.4082979877
 10
311.9008138592
 20
-29.7571439977
 10
310.9750142847
 20
-31.062823949
 10
310.0062393379
 20
-32.3193803235
 10
308.9989093167
 20
-33.5210797427
 10
307.957620437
 20
-34.6624391277
 10
306.8871238609
 20
-35.7382507175
 10
305.792304019
 20
-36.7436058305
 10
304.678156323
 20
-37.6739172619
 10
303.5497643733
 20
-38.5249402141
 10
302.4122767636
 20
-39.2927916645
 10
301.270883589
 20
-39.973968083
 10
300.1307927647
 20
-40.5653614179
 10
298.9972062636
 20
-41.0642732771
 10
297.875296381
 20
-41.4684272401
 10
297.3312314922
 20
-41.6313361922
  0
LINE
  5
153
330
1F
100
AcDbEntity
  8
0
  6
Continuous
 62
     7
370
    25
100
AcDbLine
 10
305.1297276765
 20
28.4135164626
 30
0.0
 11
316.4434361755
 21
21.882251568
 31
0.0
  0
ARC
  5
154
330
1F
100
AcDbEntity
  8
0
  6
Continuous
 62
     7
370
    25
100
AcDbCircle
 10
302.4079216546
 20
10.4045736939
 30
0.0
 40
18.13098886568092
100
AcDbArc
 50
30.9264271959
 51
39.2749157968
  0
LWPOLYLINE
  5
155
330
1F
100
AcDbEntity
  8
0
  6
Continuous
 62
     7
370
    25
100
AcDbPolyline
 90
       38
 70
   128
 43
0.0
 10
317.9611906263
 20
-3.4486508183
 10
318.2668281444
 20
-3.9854029827
 10
318.7170074382
 20
-4.9369147667
 10
319.0953391528
 20
-5.9622345882
 10
319.4000970473
 20
-7.0566841481
 10
319.6298905814
 20
-8.215269724
 10
319.7836712598
 20
-9.4327049557
 10
319.8607374166
 20
-10.7034349654
 10
319.8607374166
 20
-12.0216617036
 10
319.7836712598
 20
-13.381370404
 10
319.6298905814
 20
-14.7763570277
 10
319.4000970473
 20
-16.2002565707
 10
319.0953391528
 20
-17.6465721058
 10
318.7170074382
 20
-19.1087044272
 10
318.2668281444
 20
-20.5799821603
 10
317.7468553362
 20
-22.0536922024
 10
317.1594615303
 20
-23.5231103524
 10
316.5073268699
 20
-24.9815319924
 10
315.7934268958
 20
-26.422302679
 10
315.02101897
 20
-27.8388485059
 10
314.1936274126
 20
-29.2247060996
 10
313.3150274216
 20
-30.5735521095
 10
312.3892278471
 20
-31.8792320608
 10
311.4204529003
 20
-33.1357884353
 10
310.4131228791
 20
-34.3374878545
 10
309.3718339993
 20
-35.4788472395
 10
308.3013374233
 20
-36.5546588293
 10
307.2065175814
 20
-37.5600139423
 10
306.0923698854
 20
-38.4903253738
 10
304.9639779357
 20
-39.3413483259
 10
303.826490326
 20
-40.1091997763
 10
302.6850971514
 20
-40.7903761948
 10
301.545006327
 20
-41.3817695298
 10
300.411419826
 20
-41.8806813889
 10
299.2895099434
 20
-42.2848353519
 10
298.1843956967
 20
-42.592387357
 10
297.1011194688
 20
-42.8019341147
 10
296.3167857883
 20
-42.8932970036
  0
LWPOLYLINE
  5
156
330
1F
100
AcDbEntity
  8
0
  6
Continuous
 62
     7
370
    25
100
AcDbPolyline
 90
       42
 70
   128
 43
0.0
 10
317.9611906263
 20
-2.4703619737
 10
318.5736750927
 20
-3.1372211807
 10
319.1610688986
 20
-3.9284488781
 10
319.6810417068
 20
-4.8018110946
 10
320.1312210006
 20
-5.7533228785
 10
320.5095527152
 20
-6.7786427001
 10
320.8143106097
 20
-7.8730922599
 10
321.0441041438
 20
-9.0316778358
 10
321.1978848222
 20
-10.2491130675
 10
321.274950979
 20
-11.5198430772
 10
321.274950979
 20
-12.8380698154
 10
321.1978848222
 20
-14.1977785158
 10
321.0441041438
 20
-15.5927651395
 10
320.8143106097
 20
-17.0166646825
 10
320.5095527152
 20
-18.4629802177
 10
320.1312210006
 20
-19.925112539
 10
319.6810417068
 20
-21.3963902722
 10
319.1610688986
 20
-22.8701003142
 10
318.5736750927
 20
-24.3395184642
 10
317.9215404322
 20
-25.7979401042
 10
317.2076404582
 20
-27.2387107908
 10
316.4352325324
 20
-28.6552566178
 10
315.607840975
 20
-30.0411142114
 10
314.7292409839
 20
-31.3899602213
 10
313.8034414095
 20
-32.6956401726
 10
312.8346664627
 20
-33.9521965471
 10
311.8273364415
 20
-35.1538959663
 10
310.7860475617
 20
-36.2952553514
 10
309.7155509857
 20
-37.3710669411
 10
308.6207311437
 20
-38.3764220542
 10
307.5065834477
 20
-39.3067334856
 10
306.3781914981
 20
-40.1577564378
 10
305.2407038884
 20
-40.9256078881
 10
304.0993107137
 20
-41.6067843067
 10
302.9592198894
 20
-42.1981776416
 10
301.8256333883
 20
-42.6970895007
 10
300.7037235057
 20
-43.1012434637
 10
299.5986092591
 20
-43.4087954688
 10
298.5153330312
 20
-43.6183422266
 10
297.458837563
 20
-43.7289276233
 10
296.4339434011
 20
-43.7400470833
 10
295.6825091119
 20
-43.6823311591
  0
LWPOLYLINE
  5
157
330
1F
100
AcDbEntity
  8
0
  6
Continuous
 62
     7
370
    25
100
AcDbPolyline
 90
       46
 70
   128
 43
0.0
 10
317.9611906263
 20
-2.1748621054
 10
318.6218540206
 20
-2.6316269835
 10
319.3357539946
 20
-3.2481463047
 10
319.987888655
 20
-3.9536292925
 10
320.5752824609
 20
-4.7448569899
 10
321.0952552691
 20
-5.6182192064
 10
321.545434563
 20
-6.5697309904
 10
321.9237662776
 20
-7.5950508119
 10
322.2285241721
 20
-8.6895003718
 10
322.4583177061
 20
-9.8480859477
 10
322.6120983845
 20
-11.0655211793
 10
322.6891645413
 20
-12.3362511891
 10
322.6891645413
 20
-13.6544779273
 10
322.6120983845
 20
-15.0141866277
 10
322.4583177061
 20
-16.4091732514
 10
322.2285241721
 20
-17.8330727943
 10
321.9237662776
 20
-19.2793883295
 10
321.545434563
 20
-20.7415206509
 10
321.0952552691
 20
-22.212798384
 10
320.5752824609
 20
-23.686508426
 10
319.987888655
 20
-25.155926576
 10
319.3357539946
 20
-26.614348216
 10
318.6218540206
 20
-28.0551189026
 10
317.8494460948
 20
-29.4716647296
 10
317.0220545374
 20
-30.8575223232
 10
316.1434545463
 20
-32.2063683331
 10
315.2176549718
 20
-33.5120482844
 10
314.2488800251
 20
-34.768604659
 10
313.2415500039
 20
-35.9703040781
 10
312.2002611241
 20
-37.1116634632
 10
311.129764548
 20
-38.187475053
 10
310.0349447061
 20
-39.192830166
 10
308.9207970101
 20
-40.1231415974
 10
307.7924050604
 20
-40.9741645496
 10
306.6549174507
 20
-41.742016
 10
305.5135242761
 20
-42.4231924185
 10
304.3734334518
 20
-43.0145857534
 10
303.2398469507
 20
-43.5134976126
 10
302.1179370681
 20
-43.9176515756
 10
301.0128228214
 20
-44.2252035806
 10
299.9295465935
 20
-44.4347503384
 10
298.8730511254
 20
-44.5453357352
 10
297.8481569635
 20
-44.5564551951
 10
296.8595404648
 20
-44.4680579826
 10
295.9117124597
 20
-44.280547434
 10
295.3372588217
 20
-44.1118192379
  0
LWPOLYLINE
  5
158
330
1F
100
AcDbEntity
  8
0
  6
Continuous
 62
     7
370
    25
100
AcDbPolyline
 90
       47
 70
   128
 43
0.0
 10
317.9611906263
 20
-2.1708908587
 10
317.990867451
 20
-2.1885251763
 10
318.7632753768
 20
-2.7132677946
 10
319.4771753508
 20
-3.3297871159
 10
320.1293100113
 20
-4.0352701037
 10
320.7167038172
 20
-4.8264978011
 10
321.2366766254
 20
-5.6998600176
 10
321.6868559192
 20
-6.6513718016
 10
322.0651876338
 20
-7.6766916231
 10
322.3699455283
 20
-8.7711411829
 10
322.5997390624
 20
-9.9297267588
 10
322.7535197408
 20
-11.1471619905
 10
322.8305858976
 20
-12.4178920002
 10
322.8305858976
 20
-13.7361187384
 10
322.7535197408
 20
-15.0958274388
 10
322.5997390624
 20
-16.4908140625
 10
322.3699455283
 20
-17.9147136055
 10
322.0651876338
 20
-19.3610291407
 10
321.6868559192
 20
-20.823161462
 10
321.2366766254
 20
-22.2944391952
 10
320.7167038172
 20
-23.7681492372
 10
320.1293100113
 20
-25.2375673872
 10
319.4771753508
 20
-26.6959890272
 10
318.7632753768
 20
-28.1367597138
 10
317.990867451
 20
-29.5533055408
 10
317.1634758936
 20
-30.9391631344
 10
316.2848759026
 20
-32.2880091443
 10
315.3590763281
 20
-33.5936890956
 10
314.3903013813
 20
-34.8502454701
 10
313.3829713601
 20
-36.0519448893
 10
312.3416824803
 20
-37.1933042744
 10
311.2711859043
 20
-38.2691158641
 10
310.1763660624
 20
-39.2744709772
 10
309.0622183663
 20
-40.2047824086
 10
307.9338264167
 20
-41.0558053608
 10
306.796338807
 20
-41.8236568111
 10
305.6549456323
 20
-42.5048332297
 10
304.514854808
 20
-43.0962265646
 10
303.3812683069
 20
-43.5951384237
 10
302.2593584243
 20
-43.9992923868
 10
301.1542441777
 20
-44.3068443918
 10
300.0709679498
 20
-44.5163911496
 10
299.0144724816
 20
-44.6269765463
 10
297.9895783197
 20
-44.6380960063
 10
297.000961821
 20
-44.5496987938
 10
296.0531338159
 20
-44.3621882452
 10
295.3165314964
 20
-44.1376038335
  0
LINE
  5
159
330
1F
100
AcDbEntity
  8
0
  6
Continuous
 62
     7
370
    25
100
AcDbLine
 10
108.3323425481
 20
6.493218435
 30
0.0
 11
108.3323425481
 21
-56.506781565
 31
0.0
  0
LINE
  5
15A
330
1F
100
AcDbEntity
  8
0
  6
Continuous
 62
     7
370
    25
100
AcDbLine
 10
171.3323425481
 20
-56.506781565
 30
0.0
 11
171.3323425481
 21
6.493218435
 31
0.0
  0
LINE
  5
15B
330
1F
100
AcDbEntity
  8
0
  6
Continuous
 62
     7
370
    25
100
AcDbLine
 10
115.9323425481
 20
45.293218435
 30
0.0
 11
117.6643933556
 21
44.293218435
 31
0.0
  0
LINE
  5
15C
330
1F
100
AcDbEntity
  8
0
  6
Continuous
 62
     7
370
    25
100
AcDbLine
 10
162.0002917405
 20
44.293218435
 30
0.0
 11
163.7323425481
 21
45.293218435
 31
0.0
  0
LINE
  5
15D
330
1F
100
AcDbEntity
  8
0
  6
Continuous
 62
     7
370
    25
100
AcDbLine
 10
115.9323425481
 20
45.493218435
 30
0.0
 11
115.9323425481
 21
45.293218435
 31
0.0
  0
LINE
  5
15E
330
1F
100
AcDbEntity
  8
0
  6
Continuous
 62
     7
370
    25
100
AcDbLine
 10
163.7323425481
 20
45.293218435
 30
0.0
 11
163.7323425481
 21
45.493218435
 31
0.0
  0
LINE
  5
15F
330
1F
100
AcDbEntity
  8
0
  6
Continuous
 62
     7
370
    25
100
AcDbLine
 10
163.7323425481
 20
43.293218435
 30
0.0
 11
162.0002917405
 21
44.293218435
 31
0.0
  0
LINE
  5
160
330
1F
100
AcDbEntity
  8
0
  6
Continuous
 62
     7
370
    25
100
AcDbLine
 10
117.6643933556
 20
44.293218435
 30
0.0
 11
115.9323425481
 21
43.293218435
 31
0.0
  0
LINE
  5
161
330
1F
100
AcDbEntity
  8
0
  6
Continuous
 62
     7
370
    25
100
AcDbLine
 10
115.9323425481
 20
43.293218435
 30
0.0
 11
117.6643933556
 21
42.293218435
 31
0.0
  0
LINE
  5
162
330
1F
100
AcDbEntity
  8
0
  6
Continuous
 62
     7
370
    25
100
AcDbLine
 10
162.0002917405
 20
42.293218435
 30
0.0
 11
163.7323425481
 21
43.293218435
 31
0.0
  0
LINE
  5
163
330
1F
100
AcDbEntity
  8
0
  6
Continuous
 62
     7
370
    25
100
AcDbLine
 10
163.7323425481
 20
41.293218435
 30
0.0
 11
162.0002917405
 21
42.293218435
 31
0.0
  0
LINE
  5
164
330
1F
100
AcDbEntity
  8
0
  6
Continuous
 62
     7
370
    25
100
AcDbLine
 10
117.6643933556
 20
42.293218435
 30
0.0
 11
115.9323425481
 21
41.293218435
 31
0.0
  0
LINE
  5
165
330
1F
100
AcDbEntity
  8
0
  6
Continuous
 62
     7
370
    25
100
AcDbLine
 10
115.9323425481
 20
41.293218435
 30
0.0
 11
117.6643933556
 21
40.293218435
 31
0.0
  0
LINE
  5
166
330
1F
100
AcDbEntity
  8
0
  6
Continuous
 62
     7
370
    25
100
AcDbLine
 10
162.0002917405
 20
40.293218435
 30
0.0
 11
163.7323425481
 21
41.293218435
 31
0.0
  0
LINE
  5
167
330
1F
100
AcDbEntity
  8
0
  6
Continuous
 62
     7
370
    25
100
AcDbLine
 10
163.7323425481
 20
39.293218435
 30
0.0
 11
162.0002917405
 21
40.293218435
 31
0.0
  0
LINE
  5
168
330
1F
100
AcDbEntity
  8
0
  6
Continuous
 62
     7
370
    25
100
AcDbLine
 10
117.6643933556
 20
40.293218435
 30
0.0
 11
115.9323425481
 21
39.293218435
 31
0.0
  0
LINE
  5
169
330
1F
100
AcDbEntity
  8
0
  6
Continuous
 62
     7
370
    25
100
AcDbLine
 10
115.9323425481
 20
39.293218435
 30
0.0
 11
115.9323425481
 21
22.493218435
 31
0.0
  0
LINE
  5
16A
330
1F
100
AcDbEntity
  8
0
  6
Continuous
 62
     7
370
    25
100
AcDbLine
 10
163.7323425481
 20
22.493218435
 30
0.0
 11
163.7323425481
 21
39.293218435
 31
0.0
  0
LINE
  5
16B
330
1F
100
AcDbEntity
  8
0
  6
Continuous
 62
     7
370
    25
100
AcDbLine
 10
137.6859136194
 20
6.493218435
 30
0.0
 11
141.9787714767
 21
6.493218435
 31
0.0
  0
LINE
  5
16C
330
1F
100
AcDbEntity
  8
0
  6
Continuous
 62
     7
370
    25
100
AcDbLine
 10
137.6859136194
 20
6.493218435
 30
0.0
 11
137.6859136194
 21
22.493218435
 31
0.0
  0
LINE
  5
16D
330
1F
100
AcDbEntity
  8
0
  6
Continuous
 62
     7
370
    25
100
AcDbLine
 10
141.9787714767
 20
22.493218435
 30
0.0
 11
141.9787714767
 21
6.493218435
 31
0.0
  0
LINE
  5
16E
330
1F
100
AcDbEntity
  8
0
  6
Continuous
 62
     7
370
    25
100
AcDbLine
 10
137.6859136194
 20
22.493218435
 30
0.0
 11
141.9787714767
 21
22.493218435
 31
0.0
  0
LINE
  5
16F
330
1F
100
AcDbEntity
  8
0
  6
Continuous
 62
     7
370
    25
100
AcDbLine
 10
101.9787714767
 20
22.493218435
 30
0.0
 11
101.9787714767
 21
6.493218435
 31
0.0
  0
LINE
  5
170
330
1F
100
AcDbEntity
  8
0
  6
Continuous
 62
     7
370
    25
100
AcDbLine
 10
101.9787714767
 20
6.493218435
 30
0.0
 11
137.6859136194
 21
6.493218435
 31
0.0
  0
LINE
  5
171
330
1F
100
AcDbEntity
  8
0
  6
Continuous
 62
     7
370
    25
100
AcDbLine
 10
137.6859136194
 20
22.493218435
 30
0.0
 11
101.9787714767
 21
22.493218435
 31
0.0
  0
LINE
  5
172
330
1F
100
AcDbEntity
  8
0
  6
Continuous
 62
     7
370
    25
100
AcDbLine
 10
177.6859136194
 20
6.493218435
 30
0.0
 11
177.6859136194
 21
22.493218435
 31
0.0
  0
LINE
  5
173
330
1F
100
AcDbEntity
  8
0
  6
Continuous
 62
     7
370
    25
100
AcDbLine
 10
141.9787714767
 20
6.493218435
 30
0.0
 11
177.6859136194
 21
6.493218435
 31
0.0
  0
LINE
  5
174
330
1F
100
AcDbEntity
  8
0
  6
Continuous
 62
     7
370
    25
100
AcDbLine
 10
177.6859136194
 20
22.493218435
 30
0.0
 11
141.9787714767
 21
22.493218435
 31
0.0
  0
LINE
  5
175
330
1F
100
AcDbEntity
  8
0
  6
Continuous
 62
     7
370
    25
100
AcDbLine
 10
108.3323425481
 20
-56.506781565
 30
0.0
 11
171.3323425481
 21
-56.506781565
 31
0.0
  0
LINE
  5
176
330
1F
100
AcDbEntity
  8
0
  6
Continuous
 62
     7
370
    25
100
AcDbLine
 10
99.8323425481
 20
6.493218435
 30
0.0
 11
99.8323425481
 21
22.493218435
 31
0.0
  0
LINE
  5
177
330
1F
100
AcDbEntity
  8
0
  6
Continuous
 62
     7
370
    25
100
AcDbLine
 10
99.8323425481
 20
6.493218435
 30
0.0
 11
101.9787714767
 21
6.493218435
 31
0.0
  0
LINE
  5
178
330
1F
100
AcDbEntity
  8
0
  6
Continuous
 62
     7
370
    25
100
AcDbLine
 10
99.8323425481
 20
22.493218435
 30
0.0
 11
101.9787714767
 21
22.493218435
 31
0.0
  0
LINE
  5
179
330
1F
100
AcDbEntity
  8
0
  6
Continuous
 62
     7
370
    25
100
AcDbLine
 10
179.8323425481
 20
22.493218435
 30
0.0
 11
179.8323425481
 21
6.493218435
 31
0.0
  0
LINE
  5
17A
330
1F
100
AcDbEntity
  8
0
  6
Continuous
 62
     7
370
    25
100
AcDbLine
 10
177.6859136194
 20
6.493218435
 30
0.0
 11
179.8323425481
 21
6.493218435
 31
0.0
  0
LINE
  5
17B
330
1F
100
AcDbEntity
  8
0
  6
Continuous
 62
     7
370
    25
100
AcDbLine
 10
177.6859136194
 20
22.493218435
 30
0.0
 11
179.8323425481
 21
22.493218435
 31
0.0
  0
LINE
  5
17C
330
1F
100
AcDbEntity
  8
0
  6
Continuous
 62
     7
370
    25
100
AcDbLine
 10
117.6643933556
 20
44.293218435
 30
0.0
 11
162.0002917405
 21
44.293218435
 31
0.0
  0
LINE
  5
17D
330
1F
100
AcDbEntity
  8
0
  6
Continuous
 62
     7
370
    25
100
AcDbLine
 10
115.9323425481
 20
45.293218435
 30
0.0
 11
163.7323425481
 21
45.293218435
 31
0.0
  0
LINE
  5
17E
330
1F
100
AcDbEntity
  8
0
  6
Continuous
 62
     7
370
    25
100
AcDbLine
 10
115.9323425481
 20
45.493218435
 30
0.0
 11
163.7323425481
 21
45.493218435
 31
0.0
  0
LINE
  5
17F
330
1F
100
AcDbEntity
  8
0
  6
Continuous
 62
     7
370
    25
100
AcDbLine
 10
115.9323425481
 20
43.293218435
 30
0.0
 11
163.7323425481
 21
43.293218435
 31
0.0
  0
LINE
  5
180
330
1F
100
AcDbEntity
  8
0
  6
Continuous
 62
     7
370
    25
100
AcDbLine
 10
117.6643933556
 20
42.293218435
 30
0.0
 11
162.0002917405
 21
42.293218435
 31
0.0
  0
LINE
  5
181
330
1F
100
AcDbEntity
  8
0
  6
Continuous
 62
     7
370
    25
100
AcDbLine
 10
115.9323425481
 20
41.293218435
 30
0.0
 11
163.7323425481
 21
41.293218435
 31
0.0
  0
LINE
  5
182
330
1F
100
AcDbEntity
  8
0
  6
Continuous
 62
     7
370
    25
100
AcDbLine
 10
117.6643933556
 20
40.293218435
 30
0.0
 11
162.0002917405
 21
40.293218435
 31
0.0
  0
LINE
  5
183
330
1F
100
AcDbEntity
  8
0
  6
Continuous
 62
     7
370
    25
100
AcDbLine
 10
115.9323425481
 20
39.293218435
 30
0.0
 11
163.7323425481
 21
39.293218435
 31
0.0
  0
ENDSEC
  0
SECTION
  2
OBJECTS
  0
DICTIONARY
  5
C
330
0
100
AcDbDictionary
281
     1
  3
ACAD_GROUP
350
D
  3
ACAD_LAYOUT
350
1A
  3
ACAD_MLINESTYLE
350
17
  3
ACAD_PLOTSETTINGS
350
19
  3
ACAD_PLOTSTYLENAME
350
E
  3
ACAD_SCALELIST
350
47
  3
DWGPROPS
350
184
  0
DICTIONARY
  5
D
102
{ACAD_REACTORS
330
C
102
}
330
C
100
AcDbDictionary
281
     1
  0
DICTIONARY
  5
1A
102
{ACAD_REACTORS
330
C
102
}
330
C
100
AcDbDictionary
281
     1
  3
Layout1
350
1E
  3
Layout2
350
26
  3
Model
350
22
  0
DICTIONARY
  5
17
102
{ACAD_REACTORS
330
C
102
}
330
C
100
AcDbDictionary
281
     1
  3
Standard
350
18
  0
DICTIONARY
  5
19
102
{ACAD_REACTORS
330
C
102
}
330
C
100
AcDbDictionary
281
     1
  0
ACDBDICTIONARYWDFLT
  5
E
102
{ACAD_REACTORS
330
C
102
}
330
C
100
AcDbDictionary
281
     1
  3
Normal
350
F
100
AcDbDictionaryWithDefault
340
F
  0
DICTIONARY
  5
47
102
{ACAD_REACTORS
330
C
102
}
330
C
100
AcDbDictionary
281
     1
  3
A0
350
48
  3
A1
350
49
  3
A2
350
4A
  3
A3
350
4B
  3
A4
350
4C
  3
A5
350
4D
  3
A6
350
4E
  3
A7
350
4F
  3
A8
350
50
  3
A9
350
51
  3
B0
350
52
  3
B1
350
53
  3
B2
350
54
  3
B3
350
55
  3
B4
350
56
  3
B5
350
57
  3
B6
350
58
  3
B7
350
59
  3
B8
350
5A
  3
B9
350
5B
  3
C0
350
5C
  3
C1
350
5D
  3
C2
350
5E
  3
C3
350
5F
  3
C4
350
60
  3
C5
350
61
  3
C6
350
62
  3
C7
350
63
  3
C8
350
64
  3
C9
350
65
  3
D0
350
66
  3
D1
350
67
  3
D2
350
68
  0
XRECORD
  5
184
102
{ACAD_REACTORS
330
C
102
}
330
C
100
AcDbXrecord
280
     1
  1
DWGPROPS COOKIE
  2

  3

  4

  6

  7

  8
b.kav
  9

300
=
301
=
302
=
303
=
304
=
305
=
306
=
307
=
308
=
309
=
 40
0.0
 41
2459935.584210845
 42
2459935.584211053
  1

 90
        0
  0
LAYOUT
  5
1E
102
{ACAD_REACTORS
330
1A
102
}
330
1A
100
AcDbPlotSettings
  1

  2
none_device
  4

  6

 40
0.0
 41
0.0
 42
0.0
 43
0.0
 44
0.0
 45
0.0
 46
0.0
 47
0.0
 48
0.0
 49
0.0
140
0.0
141
0.0
142
1.0
143
1.0
 70
   688
 72
     1
 73
     0
 74
     5
  7

 75
    16
147
1.0
148
0.0
149
0.0
100
AcDbLayout
  1
Layout1
 70
     1
 71
     1
 10
0.0
 20
0.0
 11
420.0
 21
297.0
 12
0.0
 22
0.0
 32
0.0
 14
1.0000000000E+20
 24
1.0000000000E+20
 34
1.0000000000E+20
 15
-1.0000000000E+20
 25
-1.0000000000E+20
 35
-1.0000000000E+20
146
0.0
 13
0.0
 23
0.0
 33
0.0
 16
1.0
 26
0.0
 36
0.0
 17
0.0
 27
1.0
 37
0.0
 76
     0
330
1B
  0
LAYOUT
  5
26
102
{ACAD_REACTORS
330
1A
102
}
330
1A
100
AcDbPlotSettings
  1

  2
none_device
  4

  6

 40
0.0
 41
0.0
 42
0.0
 43
0.0
 44
0.0
 45
0.0
 46
0.0
 47
0.0
 48
0.0
 49
0.0
140
0.0
141
0.0
142
1.0
143
1.0
 70
   688
 72
     1
 73
     0
 74
     5
  7

 75
    16
147
1.0
148
0.0
149
0.0
100
AcDbLayout
  1
Layout2
 70
     1
 71
     2
 10
0.0
 20
0.0
 11
0.0
 21
0.0
 12
0.0
 22
0.0
 32
0.0
 14
0.0
 24
0.0
 34
0.0
 15
0.0
 25
0.0
 35
0.0
146
0.0
 13
0.0
 23
0.0
 33
0.0
 16
1.0
 26
0.0
 36
0.0
 17
0.0
 27
1.0
 37
0.0
 76
     0
330
23
  0
LAYOUT
  5
22
102
{ACAD_REACTORS
330
1A
102
}
330
1A
100
AcDbPlotSettings
  1

  2
none_device
  4
Letter_(8.50_x_11.00_Inches)
  6

 40
6.35
 41
6.35
 42
6.35000508
 43
6.35000508
 44
215.9
 45
279.4
 46
0.0
 47
0.0
 48
0.0
 49
0.0
140
0.0
141
0.0
142
1.0
143
1.0
 70
  1712
 72
     1
 73
     0
 74
     0
  7

 75
     0
147
1.0
148
0.0
149
0.0
100
AcDbLayout
  1
Model
 70
     1
 71
     0
 10
0.0
 20
0.0
 11
279.4
 21
215.9
 12
0.0
 22
0.0
 32
0.0
 14
0.0
 24
0.0
 34
0.0
 15
279.4
 25
215.9
 35
0.0
146
0.0
 13
0.0
 23
0.0
 33
0.0
 16
1.0
 26
0.0
 36
0.0
 17
0.0
 27
1.0
 37
0.0
 76
     0
330
1F
331
29
  0
MLINESTYLE
  5
18
102
{ACAD_REACTORS
330
17
102
}
330
17
100
AcDbMlineStyle
  2
Standard
 70
     0
  3

 62
   256
 51
90.0
 52
90.0
 71
     2
 49
0.5
 62
   256
  6
BYLAYER
 49
-0.5
 62
   256
  6
BYLAYER
  0
ACDBPLACEHOLDER
  5
F
102
{ACAD_REACTORS
330
E
102
}
330
E
  0
SCALE
  5
48
102
{ACAD_REACTORS
330
47
102
}
330
47
100
AcDbScale
 70
     0
300
1:1
140
1.0
141
1.0
290
     1
  0
SCALE
  5
49
102
{ACAD_REACTORS
330
47
102
}
330
47
100
AcDbScale
 70
     0
300
1:2
140
1.0
141
2.0
290
     0
  0
SCALE
  5
4A
102
{ACAD_REACTORS
330
47
102
}
330
47
100
AcDbScale
 70
     0
300
1:4
140
1.0
141
4.0
290
     0
  0
SCALE
  5
4B
102
{ACAD_REACTORS
330
47
102
}
330
47
100
AcDbScale
 70
     0
300
1:5
140
1.0
141
5.0
290
     0
  0
SCALE
  5
4C
102
{ACAD_REACTORS
330
47
102
}
330
47
100
AcDbScale
 70
     0
300
1:8
140
1.0
141
8.0
290
     0
  0
SCALE
  5
4D
102
{ACAD_REACTORS
330
47
102
}
330
47
100
AcDbScale
 70
     0
300
1:10
140
1.0
141
10.0
290
     0
  0
SCALE
  5
4E
102
{ACAD_REACTORS
330
47
102
}
330
47
100
AcDbScale
 70
     0
300
1:16
140
1.0
141
16.0
290
     0
  0
SCALE
  5
4F
102
{ACAD_REACTORS
330
47
102
}
330
47
100
AcDbScale
 70
     0
300
1:20
140
1.0
141
20.0
290
     0
  0
SCALE
  5
50
102
{ACAD_REACTORS
330
47
102
}
330
47
100
AcDbScale
 70
     0
300
1:30
140
1.0
141
30.0
290
     0
  0
SCALE
  5
51
102
{ACAD_REACTORS
330
47
102
}
330
47
100
AcDbScale
 70
     0
300
1:40
140
1.0
141
40.0
290
     0
  0
SCALE
  5
52
102
{ACAD_REACTORS
330
47
102
}
330
47
100
AcDbScale
 70
     0
300
1:50
140
1.0
141
50.0
290
     0
  0
SCALE
  5
53
102
{ACAD_REACTORS
330
47
102
}
330
47
100
AcDbScale
 70
     0
300
1:100
140
1.0
141
100.0
290
     0
  0
SCALE
  5
54
102
{ACAD_REACTORS
330
47
102
}
330
47
100
AcDbScale
 70
     0
300
2:1
140
2.0
141
1.0
290
     0
  0
SCALE
  5
55
102
{ACAD_REACTORS
330
47
102
}
330
47
100
AcDbScale
 70
     0
300
4:1
140
4.0
141
1.0
290
     0
  0
SCALE
  5
56
102
{ACAD_REACTORS
330
47
102
}
330
47
100
AcDbScale
 70
     0
300
8:1
140
8.0
141
1.0
290
     0
  0
SCALE
  5
57
102
{ACAD_REACTORS
330
47
102
}
330
47
100
AcDbScale
 70
     0
300
10:1
140
10.0
141
1.0
290
     0
  0
SCALE
  5
58
102
{ACAD_REACTORS
330
47
102
}
330
47
100
AcDbScale
 70
     0
300
100:1
140
100.0
141
1.0
290
     0
  0
SCALE
  5
59
102
{ACAD_REACTORS
330
47
102
}
330
47
100
AcDbScale
 70
     0
300
1/128" = 1'-0"
140
0.0078125
141
12.0
290
     0
  0
SCALE
  5
5A
102
{ACAD_REACTORS
330
47
102
}
330
47
100
AcDbScale
 70
     0
300
1/64" = 1'-0"
140
0.015625
141
12.0
290
     0
  0
SCALE
  5
5B
102
{ACAD_REACTORS
330
47
102
}
330
47
100
AcDbScale
 70
     0
300
1/32" = 1'-0"
140
0.03125
141
12.0
290
     0
  0
SCALE
  5
5C
102
{ACAD_REACTORS
330
47
102
}
330
47
100
AcDbScale
 70
     0
300
1/16" = 1'-0"
140
0.0625
141
12.0
290
     0
  0
SCALE
  5
5D
102
{ACAD_REACTORS
330
47
102
}
330
47
100
AcDbScale
 70
     0
300
3/32" = 1'-0"
140
0.09375
141
12.0
290
     0
  0
SCALE
  5
5E
102
{ACAD_REACTORS
330
47
102
}
330
47
100
AcDbScale
 70
     0
300
1/8" = 1'-0"
140
0.125
141
12.0
290
     0
  0
SCALE
  5
5F
102
{ACAD_REACTORS
330
47
102
}
330
47
100
AcDbScale
 70
     0
300
3/16" = 1'-0"
140
0.1875
141
12.0
290
     0
  0
SCALE
  5
60
102
{ACAD_REACTORS
330
47
102
}
330
47
100
AcDbScale
 70
     0
300
1/4" = 1'-0"
140
0.25
141
12.0
290
     0
  0
SCALE
  5
61
102
{ACAD_REACTORS
330
47
102
}
330
47
100
AcDbScale
 70
     0
300
3/8" = 1'-0"
140
0.375
141
12.0
290
     0
  0
SCALE
  5
62
102
{ACAD_REACTORS
330
47
102
}
330
47
100
AcDbScale
 70
     0
300
1/2" = 1'-0"
140
0.5
141
12.0
290
     0
  0
SCALE
  5
63
102
{ACAD_REACTORS
330
47
102
}
330
47
100
AcDbScale
 70
     0
300
3/4" = 1'-0"
140
0.75
141
12.0
290
     0
  0
SCALE
  5
64
102
{ACAD_REACTORS
330
47
102
}
330
47
100
AcDbScale
 70
     0
300
1" = 1'-0"
140
1.0
141
12.0
290
     0
  0
SCALE
  5
65
102
{ACAD_REACTORS
330
47
102
}
330
47
100
AcDbScale
 70
     0
300
1-1/2" = 1'-0"
140
1.5
141
12.0
290
     0
  0
SCALE
  5
66
102
{ACAD_REACTORS
330
47
102
}
330
47
100
AcDbScale
 70
     0
300
3" = 1'-0"
140
3.0
141
12.0
290
     0
  0
SCALE
  5
67
102
{ACAD_REACTORS
330
47
102
}
330
47
100
AcDbScale
 70
     0
300
6" = 1'-0"
140
6.0
141
12.0
290
     0
  0
SCALE
  5
68
102
{ACAD_REACTORS
330
47
102
}
330
47
100
AcDbScale
 70
     0
300
1'-0" = 1'-0"
140
12.0
141
12.0
290
     0
  0
ENDSEC
  0
EOF
